Oops, an error
Loading. Please wait.

Astral Dogma Tab

94 views 6 this week
no commentswrite comment
1 2 3 4 5
3 more votes to show rating
add to favorites
launch autoscroll
font size
0
reset
how to read this tab
guitar tuner
Autoscroll
slow
fast
+/-
esc
set tempo
stop
Help us to improve Ultimate-Guitar.com Take our survey!
×
Author
Difficulty
Tuning
intermediate
D A D G B E
Yousei Teikoku
Astral Dogma
Pax Vesania
2013

Drop D


                        Intro

E|------------------------------------------------------|---------|
B|------------------------------------------------------|---------|
G|------------------------------------------------------|---------|
D|-------------------9x-8x-7x-8x-------------------9-8--|--9p8-8--|
A|-------------------9x-8x-7x-8x-------------------9-8--|--9p8-8--|
D|--111-1-1-111-111--9x-8x-7x-8x--111-1-1-111-111--9-8--|--9p8-8--|
    ... . . ... ...               ... . . ... ...
                         x4                              Last Time


                        Verse

E|------------------------------------------------------------------|-------------------------------|
B|------------------------------------------------------------------|-------------------------------|
G|------------------------------------------------------------------|-------------------------------|
D|-------------------------------------------------11p10-0-6p5-0-4--|--1-1x-1-1x-1-1x-1-1x---7-7-7--|
A|-------------------------------------------------11p10-0-6p5-0-4--|--1-1x-1-1x-1-1x-1-1x---7-7-7--|
D|--1-111-1-111-111-1-111-111-111-1-111-1-111-111--11p10-0-6p5-0-4--|--1-1x-1-1x-1-1x-1-1x---7-7-7--|
    . ... . ... ... . ... ... ... . ... . ... ...        .     .            After this repeat
                         x2                                                Don't play 2nd time


                        Chorus

E|------------------------------------------------------------------------------|
B|------------------------------------------------------------------------------|
G|------------------------------------------------------------------------------|
D|--9-9--9-9--9-9--9-9~~--9-9~--9-9--9-9--1-1--1-1--1-1--1-1~~--1-1~--1-1--1-1--|
A|--9-9--9-9--9-9--9-9~~--9-9~--9-9--9-9--1-1--1-1--1-1--1-1~~--1-1~--1-1--1-1--|
D|--9-9--9-9--9-9--9-9~~--9-9~--9-9--9-9--1-1--1-1--1-1--1-1~~--1-1~--1-1--1-1--|

E|------------------------------------------------------------------------------|
B|------------------------------------------------------------------------------|
G|------------------------------------------------------------------------------|
D|--8-8--8-8--8-8--8-8~~--8-8~--8-8--8-8--9-9--9-9--9-9--9-9~~--9-9~--9-9--9-9--|
A|--8-8--8-8--8-8--8-8~~--8-8~--8-8--8-8--9-9--9-9--9-9--9-9~~--9-9~--9-9--9-9--|
D|--8-8--8-8--8-8--8-8~~--8-8~--8-8--8-8--9-9--9-9--9-9--9-9~~--9-9~--9-9--9-9--|

E|------------------------------------------------------------------------------|
B|------------------------------------------------------------------------------|
G|------------------------------------------------------------------------------|
D|--6-6--6-6--6-6--6-6~~--6-6~--6-6--6-6--1-1--1-1--1-1--1-1~~--1-1~--1-1--1-1--|
A|--6-6--6-6--6-6--6-6~~--6-6~--6-6--6-6--1-1--1-1--1-1--1-1~~--1-1~--1-1--1-1--|
D|--6-6--6-6--6-6--6-6~~--6-6~--6-6--6-6--1-1--1-1--1-1--1-1~~--1-1~--1-1--1-1--|

E|--------------------------------------------------------------------------|
B|--------------------------------------------------------------------------|
G|--------------------------------------------------------------------------|
D|--8-8--8-8--8-8--8-8~~--8-8~--8-8--8-8--8-8--8-8--8-8--8-8--8-8--8-8--8x--|
A|--8-8--8-8--8-8--8-8~~--8-8~--8-8--8-8--8-8--8-8--8-8--8-8--8-8--8-8--8x--|
D|--8-8--8-8--8-8--8-8~~--8-8~--8-8--8-8--8-8--8-8--8-8--8-8--8-8--8-8--8x--|


E|----------------------------|------------|
B|----------------------------|------------|
G|----------------------------|------------|
D|--10~-5~-6~-5~-6~-5~-4~-5~--|--1x-1x-1x--|
A|--10~-5~-7~-5~-6~-5~-5~-5~--|--1x-1x-1x--|
D|--10~-5~-6~-5~-6~-5~-4~-5~--|--1x-1x-1x--|
              x2          ^       .  .  .
                          |
                          |
                Don't play last time

E|--------------------------------------------|
B|--------------------------------------------|
G|--------------------------------------------|
D|--10x-5x-6x-5x-3x-5x---10x-10x-6x-5x-3x-5x--|
A|--10x-5x-6x-5x-3x-5x---10x-10x-6x-5x-3x-5x--|
D|--10x-5x-6x-5x-3x-5x---10x-10x-6x-5x-3x-5x--|
                      x2

E|-------------------------------------|----------------------|
B|-------------------------------------|----------------------|
G|-------------------------------------|----------------------|
D|--10~-5~-6~-5~-3~-5~--10~-5~-6~-5\0--|--1x-1x-1x--1x-1x-1x--|
A|--10~-5~-6~-5~-3~-5~--10~-5~-6~-5\0--|--1x-1x-1x--1x-1x-1x--|
D|--10~-5~-6~-5~-3~-5~--10~-5~-6~-5\0--|--1x-1x-1x--1x-1x-1x--|
                      x2                  .  .  .   .  .  .


E|------------------------------------------------------|
B|------------------------------------------------------|
G|------------------------------------------------------|
D|-------------------9x-8x-7x-8x-------------------9-8--|
A|-------------------9x-8x-7x-8x-------------------9-8--|
D|--111-1-1-111-111--9x-8x-7x-8x--111-1-1-111-111--9-8--|
    ... . . ... ...               ... . . ... ...
                         x2

E|------------------------------------------------------------------|
B|------------------------------------------------------------------|
G|------------------------------------------------------------------|
D|-------------------------------------------------11p10-0-6p5-0-4--|
A|-------------------------------------------------11p10-0-6p5-0-4--|
D|--1-111-1-111-111-1-111-111-111-1-111-1-111-111--11p10-0-6p5-0-4--|
    . ... . ... ... . ... ... ... . ... . ... ...        .     .
                         x2

                        Chorus

E|------------------------------------------------------------------------------|
B|------------------------------------------------------------------------------|
G|------------------------------------------------------------------------------|
D|--9-9--9-9--9-9--9-9~~--9-9~--9-9--9-9--1-1--1-1--1-1--1-1~~--1-1~--1-1--1-1--|
A|--9-9--9-9--9-9--9-9~~--9-9~--9-9--9-9--1-1--1-1--1-1--1-1~~--1-1~--1-1--1-1--|
D|--9-9--9-9--9-9--9-9~~--9-9~--9-9--9-9--1-1--1-1--1-1--1-1~~--1-1~--1-1--1-1--|

E|------------------------------------------------------------------------------|
B|------------------------------------------------------------------------------|
G|------------------------------------------------------------------------------|
D|--8-8--8-8--8-8--8-8~~--8-8~--8-8--8-8--9-9--9-9--9-9--9-9~~--9-9~--9-9--9-9--|
A|--8-8--8-8--8-8--8-8~~--8-8~--8-8--8-8--9-9--9-9--9-9--9-9~~--9-9~--9-9--9-9--|
D|--8-8--8-8--8-8--8-8~~--8-8~--8-8--8-8--9-9--9-9--9-9--9-9~~--9-9~--9-9--9-9--|

E|------------------------------------------------------------------------------|
B|------------------------------------------------------------------------------|
G|------------------------------------------------------------------------------|
D|--6-6--6-6--6-6--6-6~~--6-6~--6-6--6-6--1-1--1-1--1-1--1-1~~--1-1~--1-1--1-1--|
A|--6-6--6-6--6-6--6-6~~--6-6~--6-6--6-6--1-1--1-1--1-1--1-1~~--1-1~--1-1--1-1--|
D|--6-6--6-6--6-6--6-6~~--6-6~--6-6--6-6--1-1--1-1--1-1--1-1~~--1-1~--1-1--1-1--|

E|--------------------------------------------------------------------------|
B|--------------------------------------------------------------------------|
G|--------------------------------------------------------------------------|
D|--8-8--8-8--8-8--8-8~~--8-8~--8-8--8-8--8-8--8-8--8-8--8-8--8-8--8-8--8x--|
A|--8-8--8-8--8-8--8-8~~--8-8~--8-8--8-8--8-8--8-8--8-8--8-8--8-8--8-8--8x--|
D|--8-8--8-8--8-8--8-8~~--8-8~--8-8--8-8--8-8--8-8--8-8--8-8--8-8--8-8--8x--|


E|----------------------------|------------|
B|----------------------------|------------|
G|----------------------------|------------|
D|--10~-5~-6~-5~-6~-5~-4~-5~--|--1x-1x-1x--|
A|--10~-5~-7~-5~-6~-5~-5~-5~--|--1x-1x-1x--|
D|--10~-5~-6~-5~-6~-5~-4~-5~--|--1x-1x-1x--|
              x2          ^       .  .  .
                          |
                          |
                Don't play last time

E|--------------------------------------------|
B|--------------------------------------------|
G|--------------------------------------------|
D|--10x-5x-6x-5x-3x-5x---10x-10x-6x-5x-3x-5x--|
A|--10x-5x-6x-5x-3x-5x---10x-10x-6x-5x-3x-5x--|
D|--10x-5x-6x-5x-3x-5x---10x-10x-6x-5x-3x-5x--|
                      x2

E|-------------------------------------|----------------------|
B|-------------------------------------|----------------------|
G|-------------------------------------|----------------------|
D|--10~-5~-6~-5~-3~-5~--10~-5~-6~-5\0--|--1x-1x-1x--1x-1x-1x--|
A|--10~-5~-6~-5~-3~-5~--10~-5~-6~-5\0--|--1x-1x-1x--1x-1x-1x--|
D|--10~-5~-6~-5~-3~-5~--10~-5~-6~-5\0--|--1x-1x-1x--1x-1x-1x--|
                      x2                  .  .  .   .  .  .

                     Calm Part

E|--------------------------------------------------|
B|--------------------------------------------------|
G|--------------------------------------------------|
D|--1-1x--1-1x--0-0x--0-0x--1-1x--1-1x--0-0x--0-0x--|
A|--1-1x--1-1x--0-0x--2-2x--1-1x--1-1x--0-0x--2-2x--|
D|--1-1x--1-1x--0-0x--0-0x--1-1x--1-1x--0-0x--0-0x--|
    . .   . .   . .   . .   . .   . .   . .   . .
                        x2

E|---------------------------------------------------|
B|---------------------------------------------------|
G|---------------------------------------------------|
D|--3-3x--1-1x--3-3x--1-1--3-3--3-3--1-1--1--0-0--0--|
A|--3-3x--1-1x--2-2x--2-2--2-2--2-2--2-2--2--0-0--0--|
D|--0-0x--0-0x--0-0x--0-0--0-0--0-0--0-0--0--1-1--1--|
    . .   . .   . .   . .  . .  . .  . .  .  . .  .


>Pause


E|----------------------------|------------|
B|----------------------------|------------|
G|----------------------------|------------|
D|--10~-5~-6~-5~-6~-5~-4~-5~--|--1x-1x-1x--|
A|--10~-5~-7~-5~-6~-5~-5~-5~--|--1x-1x-1x--|
D|--10~-5~-6~-5~-6~-5~-4~-5~--|--1x-1x-1x--|
              x2          ^       .  .  .
                          |
                          |
                Don't play last time

E|--------------------------------------------|
B|--------------------------------------------|
G|--------------------------------------------|
D|--10x-5x-6x-5x-3x-5x---10x-10x-6x-5x-3x-5x--|
A|--10x-5x-6x-5x-3x-5x---10x-10x-6x-5x-3x-5x--|
D|--10x-5x-6x-5x-3x-5x---10x-10x-6x-5x-3x-5x--|
                      x2

E|-------------------------------------|----------------------|
B|-------------------------------------|----------------------|
G|-------------------------------------|----------------------|
D|--10~-5~-6~-5~-3~-5~--10~-5~-6~-5\0--|--1x-1x-1x--1x-1x-1x--|
A|--10~-5~-6~-5~-3~-5~--10~-5~-6~-5\0--|--1x-1x-1x--1x-1x-1x--|
D|--10~-5~-6~-5~-3~-5~--10~-5~-6~-5\0--|--1x-1x-1x--1x-1x-1x--|
                      x2                  .  .  .   .  .  .


E|------------------------------------------------------|
B|------------------------------------------------------|
G|------------------------------------------------------|
D|-------------------9x-8x-7x-8x-------------------9-8--|
A|-------------------9x-8x-7x-8x-------------------9-8--|
D|--111-1-1-111-111--9x-8x-7x-8x--111-1-1-111-111--9-8--|
    ... . . ... ...               ... . . ... ...
                         x4
>Short Pause

E|-----|
B|-----|
G|-----|
D|--1~-| Fade into feedback
A|--1~-|
D|--1~-|


Legend:

Palm Mute   -  .
Mute        -  x
Pull Off    -  p
Hold        -  ~
Slide Down  -  \
Suggest correction
Give kudos to tab author, rate the tab!
1 2 3 4 5
comments
print report bad tab
guest
You may want to rate the tab now too:
select rating
Wanna post a correction for this tab? Suggest correction