Oops, an error
Loading. Please wait.

Sound And Fury Tab

7 views 1 this week
no commentswrite comment
1 2 3 4 5
3 more votes to show rating
add to favorites
launch autoscroll
font size
0
reset
how to read this tab
guitar tuner
Autoscroll
slow
fast
+/-
esc
set tempo
stop
Help us to improve Ultimate-Guitar.com Take our survey!
×
Author
Difficulty
Tuning
intermediate
D G C F A D
About this tab version
This tab is for the original 1982 version, not the re-recorded 1983 version. Played in D Standard Tuning. Was this info helpful? Yes No
Youth Brigade - Sound and Fury
Track 9 from the album "Sound & Fury" (BYO Records 1982).

Tabbed by Isaac Murguia, September 2016.
Originally uploaded to Ultimate-Guitar.com
Contact: www.youtube.com/user/Goadiroth

*** NOTE: This is the 1982 version, not the 1983 one.
*** Tuning: D Standard (+ a quarter flat if you play along to the song)

INTRO:
e|-----------------------------|
B|-----------------------------|
G|-----------------------------|
D|-7----7-7----7-7----7-7----7-|
A|-----------------------------|
E|-----------------------------|

e|------------------------------------|---------------------------------|
B|------------------------------------|---------------------------------|
G|------------------------------------|---------------------------------|
D|-7-7-7---5--5-5---7-7-7---10--10-10-|-7-7-7---5--5-5---7-5-7-5-7-7-7--|
A|------------------------------------|---------------------------------|
E|------------------------------------|---------------------------------|

VERSE:
e|------------------------------|
B|------------------------------|
G|--------7-7-7--10-------------|
D|-7-7-7--7-7-7--10--10--7--7-7-|
A|-7-7-7--5-5-5--8---10--7--7-7-|
E|-5-5-5-------------8---5--5-5-| x4

PRE-CHORUS
e|-------------------------------|
B|-------------------------------|
G|-9-9-999-7-7-777-5--7----------|
D|-9-9-999-7-7-777-5--7--7-7-777-|
A|-7-7-777-5-5-555-3--5--7-7-777-|
E|-----------------------5-5-555-| x2

CHORUS:
e|-----------------------------------|
B|-----------------------------------|
G|----------8---------------------10-|
D|-5--------8--------10---------8-10-|    ". . ." = palm mute
A|-5--------6-666666-10---------8-8--|
E|-3-333333----------8--888888--6----| x3
     ......   ......    ...... 
e|-----------------------------------|
B|-----------------------------------|
G|----------8------------------------|
D|-5--------8--------10--10--10--8---|    ". . ." = palm mute
A|-5--------6-666666-10--10--10--8---|
E|-3-333333----------8---8---8---6---|
     ......   ......

Repeat VERSE x6
Repeat PRE-CHORUS x2
Repeat CHORUS

BRIDGE: (rhythm guitar plays verse in background)
e|---------------------------------------------------------|
B|---------------------------------------------------------|
G|---------------------------------------------------------|
D|-----------------------------7-7-7--7-7--7-7-7-7--7-7--7-|
A|-0-0-0--0-0--0-0-0-0--0-0--0-----------------------------|
E|---------------------------------------------------------|

e|---------------------------------------|---------------------------------|
B|---------------------------------------|---------------------------------|
G|---------------------------------------|---------------------------------|
D|-7-7-7---5--5-5---7-7-7---10--10-10-10-|-7-7-7---5--5-5---7-xxxxxxxxxxxx-| strum muted notes
A|---------------------------------------|------------------7-xxxxxxxxxxxx-| while sliding down
E|---------------------------------------|------------------5-xxxxxxxxxxxx-|

ENDING:
e|------------------------------|
B|------------------------------|
G|--------7-7-7--10-------------|
D|-7-7-7--7-7-7--10--10--7--7-7-|
A|-7-7-7--5-5-5--8---10--7--7-7-|
E|-5-5-5-------------8---5--5-5-| x3

e|------------------------------|
B|------------------------------|
G|--------7-7-7--10-------------|
D|-7-7-7--7-7-7--10--10--7------|
A|-7-7-7--5-5-5--8---10--7------|
E|-5-5-5-------------8---5------|

End. Please rate! :D
Suggest correction
Give kudos to tab author, rate the tab!
1 2 3 4 5
comments
print report bad tab
guest
You may want to rate the tab now too:
select rating
Wanna post a correction for this tab? Suggest correction