Oops, an error
Loading. Please wait.

17 tab

version 1
version 1

Whole song

6,498 views 21 this week
1 commentread comment
1 2 3 4 5
x 3
add to favorites
×
Save as Personal and add changes to this tab that will be seen only by you. Learn more ›
×
You can save this tab as Personal to edit and correct it or add notes. All changes will be seen only by you. Learn more »
launch autoscroll
font size
0
reset
how to read this tab
guitar tuner
edit
Autoscroll
slow
fast
+/-
esc
set tempo
stop
Difficulty
Based around the chords submitted by David McDougal(great job man!)
but with some of the fancy bits added and stuff. I've included for
one guitar or two.
This is not dead on by any means, but it sounds pretty close to me.
Also, I'm a really messy tabber, so apologies for mistakes i've made
and difficulties you may have reading/understanding it.

intro:

|-------------0-0-------------------|
|---1----1---------1-----1--(1)-----|
|---0h2----2---------0h2---2-0------|
|---2-----------------------(2)-----|
|---3-----------------------(3)-----|
|-----------------------------------|  x2

C                               F             C
Roaming the camp ground up by the lake where we swam.
        F           C
We were hunting for snakes,
        F            C
But we couldn't find them.
C
Surrounded by nothing,
                   F            C
But the nothing's surrounded by us.
              F         C
But it's just me in my room,
F         C
With my eyes shut.

(Chorus)

        Am    C
Oh when I was seventeen,
   F      C
My mother said to me
Am         C             F                      C
Don't stop imagining The day that you do is the day that you die.
    Am       C
Now I pull a wanton carriage,
   F                   C
Instead of the horses, grazing along.
Am    C
I was having fun.
F                  C
We were all having fun.


Chords: Am  C  F  C (x2)

OR

soloy bit

|-0--3--5555-3-0-3-0-3-5-0-00----------------------------------------|
|------------------------------------3--11-33-1---1--3333--1-1-------|
|-----------------------------------------------2--------------------|
|--------------------------------------------------------------------|
|--------------------------------------------------------------------|
|--------------------------------------------------------------------|  x2

on second one add

|-------------------------------------|
|-1-0--1-(1)--------------------------|
|---------0---------------------------|
|--------(2)--------------------------|
|--------(3)--------------------------|
|-------------------------------------|

   C                                                F        C
My brain kicking faster than I can, but not fast enough.
F               C
Who is there to talk to
     F             C
That won't lock me up?
   C                                 F                    C
At least God doesn't judge me by the thoughts that aren't mine.
           F          C
The snakes I couldn't find,
  F             C
I don't want to find.


C   Am   F   C (4x)
Ohhhhh

(Chorus)

        Am    C
Oh when I was seventeen,
   F      C
My mother said to me
Am         C             F                      C
Don't stop imagining The day that you do is the day that you die.
    Am       C
Now I pull a wanton carriage,
   F                   C
Instead of the horses, grazing along.
Am    C
I was having fun.
F                  C
We were all having fun.


|-0--3--5555-3-0-3-0-3-5-0-00---------------------------------------|
|------------------------------------3--11-33-1--1--3333--1-1-------|
|-------------------------------------------------2-----------------|
|-------------------------------------------------------------------|
|-------------------------------------------------------------------|
|-------------------------------------------------------------------|  x2

NOTE: in the chorus, I normally use a picking pattern type thing
and tend to walk down the C to Am 'cause I like walk downs :)




IF YOU HAVE 2 GUITARS/ARE LAYERING OR WHATEVER:

for the picking bits to be more similar to the the CD:

|----------8-----12---12-8--------8--------------------------|
|----8h10---10-------------8h10----10-8----------------------|
|------------------------------------------------------------|
|------------------------------------------------------------|
|------------------------------------------------------------|
|------------------------------------------------------------|


and same for the other bit:

|---------15--17-15----15-----15-17--------------------------|
|----17--------------17-----17---------17--------------------|
|------------------------------------------------------------|
|------------------------------------------------------------|
|------------------------------------------------------------|
|------------------------------------------------------------|


|----------------------------------------------------------------|
|-17---15----15-------------15-----------------------------------|
|----------17----17-14--17------17-------17--16--17--------------|
|-----------------------------------------------------------17---|
|----------------------------------------------------------------|
|----------------------------------------------------------------|
(I haven't put the number of times to play each note in this bit
because it's not too hard to figure out and with double figures
it looks messy and can get confusing!)

            
            
Suggest correction
Creating personal tab
Creating personal tab
You can edit any tab online and save it as your Personal.

You can edit, replace or remove any tab part or add personal notes – all changes will be seen only by you.

Personal tabs can be accessed anytime from any device, even offline.
Learn more »
Give kudos to tab author, rate the tab!
1 2 3 4 5
comments
print report bad tab
1 comment total.
0 reply
sstruckmeyer 10 Mar 04, 2014 04:19 AM

I think the chorus sounds nice when picked with this pattern

(C)           (F) (C)
|------------0------------------0-|
|-1-------1------1----1--------1--|
|-0--------------2----0-----------|
|-------2--------3----------2-----| (repeated for chorus)
|---------------------------------|
|-3-------------------3-----------|


And I play the verse like this:
(Am)          (C)        (F)         (Am)
|---------------------------------------------|
|-1--------1---1------1---1-------1---1-----1-|
|-2------2-----2----0-----2-----2-----2----2--|
|------2----------2-------3--3-----------2----|
|-0------------3----------------------0-------| (repeated for verse)
|---------------------------------------------|


I hope this is helpful!

guest
Wanna post a correction for this tab? Suggest correction