Oops, an error
Loading. Please wait.

Mute Acoustic chords

190 views 1 this week
no commentswrite comment
1 2 3 4 5
2 more votes to show rating
add to favorites
×
Save as Personal and add changes to this tab that will be seen only by you. Learn more ›
×
You can save this tab as Personal to edit and correct it or add notes. All changes will be seen only by you. Learn more »
launch autoscroll
font size
0
reset
transpose
0
reset
display chords
guitar tuner
edit
Autoscroll
slow
fast
+/-
esc
set tempo
stop
Strumming
There is no strumming pattern for this song yet. and get +5 IQ
I figured this out while playing without capo and it sounds fine this way, but if you want to play along with 
the record you'll need to put one on the 8th fret.
 

[Intro]
G C G
G C G
G C Em C 
G C G

[Verse]
G           C   G
Living in a 3-D world
          G        C     G
Where the clock is in control
   G           C         Em        C         G        C      G
He sits on his throne on top of my wrist and tells me what I know

G                  C         G
The devil tries to plague my mind
       G           C     G
But he can't quite get inside
     G        C        Em     C            G    C     G
I'll place my jar in a burial grounds that only I can find

G              C         G
Winding up the back road hill
G           C          G
Looking for God's acre still
    G           C          Em            C             G          C        G
And just when I gave up, a headstone was seen near the top of the military kill

[Interlude]
G C G C Am Em C Am Em C

While playing these chords you can do all kinds of weird noises to match the original vibe. Maybe underneathh
all of them you'll even find the main melody.

[Chorus]
     G               C
As I hear the horses drawing close
     G               C
Over all the corpses we loved most
            Am  Em
But I never see them
        C
I never see them
        Am  Em
I never see them
        C
I never see...

          G               C
There's a figure watching from the knoll
        G                 C
All the myths and stories we were told
            Am  Em
But I never listen
        C
I never listen
        Am  Em
I never listen
        C
I never listen

[Outro]
G C G C Am Em C Am Em C

Play the same Chords repeatedly over and over for like 4 minutes while the main guitar melody enters

e|-------0--------0----------------------------------------------------------|
B|---0------3-0------3-1-0-10-----1-1-0-10-----------------------------------|
G|------0--------0-----------2-0----------20---------------------------------|
D|---------------------------------------------------------------------------|
A|---------------------------------------------------------------------------|
E|---------------------------------------------------------------------------|

e|-------0--------0----------------------------------------------------------|
B|-1-0------3-0------3-1-0-10-----1-1-0-10-----------------------------------|
G|------0--------0-----------2-0----------20---------------------------------|
D|---------------------------------------------------------------------------|
A|---------------------------------------------------------------------------|
E|---------------------------------------------------------------------------| 

            
            
Suggest correction
Creating personal tab
Creating personal tab
You can edit any tab online and save it as your Personal.

You can edit, replace or remove any tab part or add personal notes – all changes will be seen only by you.

Personal tabs can be accessed anytime from any device, even offline.
Learn more »
Give kudos to tab author, rate the tab!
1 2 3 4 5
comments
print report bad tab
guest
You may want to rate the tab now too:
select rating
Wanna post a correction for this tab? Suggest correction