Oops, an error
Loading. Please wait.

Understand Tab

10 views 3 this week
no commentswrite comment
1 2 3 4 5
3 more votes to show rating
add to favorites
launch autoscroll
font size
0
reset
how to read this tab
guitar tuner
Autoscroll
slow
fast
+/-
esc
set tempo
stop
Help us to improve Ultimate-Guitar.com Take our survey!
×
Author
Difficulty
intermediate
[Intro]
E|---------------------------------------------------------------|
B|---------------------------------------------------------------|
G|---------------------------------------------------------------|
D|--5---------------------------------------------------5-5-5-5--|
A|--3---------------------------------------------------3-3-3-3--|
E|---------------------------------------------------------------|
                                                        . . . .
[Verse]
E|----------------------------------------------------------|
B|----------------------------------------------------------|
G|----------------------------------------------------------|
D|--5-5-5--8--8---5-5-5--8--8---5-5-5--8--8---5-5-5--8--8---|
A|--3-3-3--6--8---3-3-3--8--6---3-3-3--6--8---3-3-3--6--6---| x2
E|------------6----------6----------------------------------|

[Chorus]
E|---------------------------------------------------|
B|---------------------------------------------------|
G|---------------------------------------------------|
D|--10-10-10-10---10--8--8--10-10-10-10---10--8--8---|
A|--10-10-10-10---10--8--6--10-10-10-10---10--8--6---| x2
E|--8--8--8--8----8---6-----8--8--8--8----8---6------|

[Verse]
E|----------------------------------------------------------|
B|----------------------------------------------------------|
G|----------------------------------------------------------|
D|--5-5-5--8--8---5-5-5--8--8---5-5-5--8--8---5-5-5--8--8---|
A|--3-3-3--6--8---3-3-3--8--6---3-3-3--6--8---3-3-3--6--6---| x4
E|------------6----------6----------------------------------|

[Chorus]
E|---------------------------------------------------|
B|---------------------------------------------------|
G|---------------------------------------------------|
D|--10-10-10-10---10--8--8--10-10-10-10---10--8--8---|
A|--10-10-10-10---10--8--6--10-10-10-10---10--8--6---| x2
E|--8--8--8--8----8---6-----8--8--8--8----8---6------|

[Bridge]
E|----------------------------------------------|
B|----------------------------------------------|
G|----------------------------------------------|
D|--10-8-10--10-8-10--10-8-10--8-8-8--7-7-7-----|
A|--10-8-10--10-8-10--10-8-10--6-6-6--5-5-5-----|
E|--8--6--8--8--6--8--8--6--8-------------------|
                                                     x2
E|----------------------------------------------|
B|----------------------------------------------|
G|----------------------------------------------|
D|--10-8-10--10-8-10--10-8-10--8-8-8--10-10-10--|
A|--10-8-10--10-8-10--10-8-10--6-6-6--8--8--8---|
E|--8--6--8--8--6--8--8--6--8-------------------|

[Fast Bridge]
E|---------------------------------------------|
B|---------------------------------------------|
G|---------------------------------------------|
D|--5-5-5-5--8-8-8-8--11-11-11-10-10-----------|
A|--3-3-3-3--6-6-6-6--9--9--9--8--8------------|
E|---------------------------------------------|

E|---------------------------------------------|
B|---------------------------------------------|
G|---------------------------------------------|
D|--5-5-5-5--8-8-8-8--11-11-11-10-10-----------|
A|--3-3-3-3--6-6-6-6--9--9--9--8--8------------|
E|---------------------------------------------|

E|---------------------------------------------------------------|
B|---------------------------------------------------------------|
G|---------------------------------------------------------------|
D|--5-------------------------5-------------------------5-5-5-5--|
A|--3-------------------------3-------------------------3-3-3-3--|
E|---------------------------------------------------------------|

[Verse]
E|----------------------------------------------------------|
B|----------------------------------------------------------|
G|----------------------------------------------------------|
D|--5-5-5--8--8---5-5-5--8--8---5-5-5--8--8---5-5-5--8--8---|
A|--3-3-3--6--8---3-3-3--8--6---3-3-3--6--6---3-3-3--6--6---|
E|------------6----------6----------------------------------|

[Outro]
E|-----------------------------------------------------|
B|-----------------------------------------------------|
G|-----------------------------------------------------|
D|--10-10-10-10---10--8--8--10-10-10-10---10--8--8--5--|
A|--10-10-10-10---10--8--6--10-10-10-10---10--8--6--3--|
E|--8--8--8--8----8---6-----8--8--8--8----8---6--------|


************************************

| x  Dead note 

************************************
Suggest correction
Give kudos to tab author, rate the tab!
1 2 3 4 5
comments
print report bad tab
guest
You may want to rate the tab now too:
select rating
Wanna post a correction for this tab? Suggest correction