Oops, an error
Loading. Please wait.

Aladdins Rave Bass Tab

104 views 1 this week
no commentswrite comment
1 2 3 4 5
please rate
add to favorites
launch autoscroll
font size
0
reset
guitar tuner
Autoscroll
slow
fast
+/-
esc
set tempo
stop
Help us to improve Ultimate-Guitar.com Take our survey!
×
Author
-------------------------------------------------------------------------------
			    Aladdins Rave - Youves
-------------------------------------------------------------------------------

 Tabbed by:dvanwyk
 Email:dustinvanwyk@yahoo.com

 Tuning:Standard

 Intro x5 (0.13)
G|--------------------------|
D|--------------------------|
A|1-1---1--1-1---2-2-2------|
E|----0--------0------------|

G|----------------------|
D|----------------------|
A|1-1---1--1-1---2------|
E|----0--------0--------|

G|-------------------------------|
D|-------------------------------|
A|1-1---1-1---1-1---222222-------|
E|----0-----0-----0--------------|

G|-----------------------------|
D|-----------------------------|
A|1-1---1-1---1-1---2-2--------|
E|----0----0-----0-------------|

 Verse x6
G|-------------------------------|
D|-------------------------------|
A|1-1---1-1---1-1---222222-------|
E|----0-----0-----0--------------|

 Chorus x4
G|------------------------------|
D|-------------------2-2-2------|
A|--4-----3-----4---------------|
E|3---3-2---2-3---3-------------|

 Post Chorus
G|-------------------------------|
D|-------------------------------|
A|1-1---1-1---1-1---222222-------|
E|----0-----0-----0--------------|

G|---------------------------|
D|---------------------------|
A|1-1---1-1---1-1---2-2------|
E|----0-----0-----0----------|

 Verse x5

G|-------------------------|
D|-------------------------|
A|1-1---1-1---1-1----------|
E|----0-----0-----0-6/-----|

 Chorus x4

 Intro x8

G|--------------|
D|--------------|
A|1-1---1-------|
E|----0---------|

 Pause

G|--------------|
D|3-3-3---------|
A|2-2-2---------|
E|--------------|

 Outro (2.20 -2.43)
G|------------|
D|------------|
A|1-1---------|
E|----0-------|


G|------------------|
D|------------------|
A|1-1---2222--------|
E|----0-------------|

G|----------------|
D|----------------|
A|1-1-------------|
E|----0-6/--------|
Suggest correction
Give kudos to tab author, rate the tab!
1 2 3 4 5
comments
print report bad tab
guest
You may want to rate the tab now too:
select rating
Wanna post a correction for this tab? Suggest correction