Oops, an error
Loading. Please wait.

Dayang Dayang tab

9,578 views 75 this week
1 commentread comment
1 2 3 4 5
3 more votes to show rating
add to favorites
×
Save as Personal and add changes to this tab that will be seen only by you. Learn more ›
×
You can save this tab as Personal to edit and correct it or add notes. All changes will be seen only by you. Learn more »
launch autoscroll
font size
0
reset
how to read this tab
guitar tuner
edit
Autoscroll
slow
fast
+/-
esc
set tempo
stop
Author
Artist:Yoyoy Villame
Song:Dayang dayang
Friendster/ym: vinci_log@yahoo.com
Tabber: Emmanuel Recto Kho Puno -09215265641 igid
November 28, 2006

Base lang at lead tabs muna kasi d ko makuha yung rythm/chords niya


BASE

G|-----------------------------------------------| then...
D|-----------------------------------------------|
A|--------3------------3----------3-----------3--|
E|-0--5---------0--5--------0--5--------0--5-----|

G|-----------------------------------------------|
D|--------3------------3----------3-----------3--| ulit-ulit lang (choy)
A|-0--5---------0--5--------0--5--------0--5-----|
E|-----------------------------------------------|

Lead nanaman


e|--12-10-9-10-12-10-12---|
B|------------------------|
G|------------------------|
D|------------------------| x 2 tapos....
A|------------------------|
E|------------------------|

e|--12---10-----------------9---------------|
B|----------12-10-----10-12-------7--9-9/10-|
G|------------------------------------------|
D|------------------------------------------| ulit-ulit...
A|------------------------------------------|
E|------------------------------------------|



krrr... krrr...
hello dps and kalsangi. dedic8ed to myself and for yoyoy and my friends.
Musta mo dinha mga choy
yoyoy==http://www.fiql.com/playlists/the_best_of_yoyoy_villame/
       http://ceb.wikipedia.org/wiki/Yoyoy_Villame

            
            
Suggest correction
Creating personal tab
Creating personal tab
You can edit any tab online and save it as your Personal.

You can edit, replace or remove any tab part or add personal notes – all changes will be seen only by you.

Personal tabs can be accessed anytime from any device, even offline.
Learn more »
Give kudos to tab author, rate the tab!
1 2 3 4 5
comments
print report bad tab
1 comment total.
0 reply
sibirbass 10 Jul 06, 2013 09:38 PM

BASE:
G-----------------
D---4-7----4-7----
A-5-----5------5--
E----------------- then

G----6-9----6-9---
D-7------7------7-
A-----------------
E-----------------

guest
You may want to rate the tab now too:
select rating
Wanna post a correction for this tab? Suggest correction