Oops, an error
Loading. Please wait.

Magellan Bass Tab

6,059 views 9 this week
no commentswrite comment
1 2 3 4 5
please rate
add to favorites
launch autoscroll
font size
0
reset
guitar tuner
Autoscroll
slow
fast
+/-
esc
set tempo
stop
Help us to improve Ultimate-Guitar.com Take our survey!
×
Author
cataobjr 809
Intro: 
G|---------------------------------|
D|-----77-------5-----754----7-----|
A|-5-5----5--------------75-5---45-|
E|----------3-3--3-5-5--------57---|


Verse:
0:08
G|------------------------------|---------------|
D|----7-7---7-7---7---------7---|------------76-|
A|-5-5---5-5---5-5---45-5-5---5-|-----7-7-------|
E|-----------------57-----------|-5-5-----5-5---|

G|----------------------------------|
D|-5-55-5---------7----7-7---7------|
A|-------5-52-27-7-75-5---5-5-----4-|
E|----------------------------5-7---| 

0:30
G|------------------------------|---------------|
D|----7-7---7-7---7---------7---|------------76-|
A|-5-5---5-5---5-5---45-5-5---5-|-----7-7-------|
E|-----------------57-----------|-5-5-----5-5---|

G|----------------------------------|
D|-5-55-5---------7----7-7---7------|
A|-------5-52-27-7-75-5---5-5-----4-|
E|----------------------------5-7---|

0:52
G|------------------------------|---------------|
D|----7-7---7-7---7---------7---|------------76-|
A|-5-5---5-5---5-5---45-5-5---5-|-----7-7-------|
E|-----------------57-----------|-5-5-----5-5---|

G|--------------------------------|
D|-5-55-5---------7----7-7------4-|
A|-------5-52-27-7-75-5---5-55-7--|
E|--------------------------------| 

1:15
G|-----------------------------------------------------|
D|-5-5---5-5-5-----7-7---7-7-7---7---754-----7-7-----4-|
A|----5-5---5---5-5---5-5-5-------------7-5-5---5-557--|
E|----------------------------5-5---5------------------|

1:31
G|----------------------------------------------------|
D|-5-5---5-5-5-----7-----2--------7-7-------7-7-----4-|
A|----5-5---5---5-5-5-2-2-2-7-77-7---7-7-5-5---5-557--|
E|----------------------------------------------------|
1:47
G|-----------------------------------------------------|
D|-5-5---5-5-5-----7-7---7-7-7---7---754-----7-7-----4-|
A|----5-5---5---5-5---5-5-5-------------7-5-5---5-557--|
E|----------------------------5-5---5------------------|

2:03
G|------------------------------------------------------------------------|
D|-5-5---5-5-5-----7-7---7-7-7---7---754-------7-77-7------7--754----7-7--|
A|----5-5---5---5-5---5-5-5-------------75-55-5------5-55-5--5---75-5---5-|
E|----------------------------5-5---5-------------------------------------|

Dat’s da eend op Magellan in da ayland op Mactan long time ago leydis en gentolmen
Suggest correction new What's this?
You can suggest a correction to this tab. Community and Mods will review your correction and vote to approve or reject it.
comments
We did not receive enough feedback on this tab! Please rate:
print report bad tab
1 2 3 4 5
guest
You may want to rate the tab now too:
select rating
Please do not post tabs as comments. Select "correction" instead!