Oops, an error
Loading. Please wait.

Crni Leptir tab

version 5
version 5

Whole song

Interactive

119 views 3 this week
no commentswrite comment
1 2 3 4 5
3 more votes to show rating
add to favorites
×
Save as Personal and add changes to this tab that will be seen only by you. Learn more ›
×
You can save this tab as Personal to edit and correct it or add notes. All changes will be seen only by you. Learn more »
launch autoscroll
font size
0
reset
how to read this tab
guitar tuner
edit
Autoscroll
slow
fast
+/-
esc
set tempo
stop
-------------------------------------------------------------------------------
                             Crni Leptir - Yu Grupa
-------------------------------------------------------------------------------
Tabbed by: Gopchu
E-mail: incoldnovemberrain@gmail.com

Tuning: Standard

Personnel:
Dragi Jelić - guitar
Žika Jelić – bass guitar and vocals 
Ratislav Đelmaš – drums 

Genre: Blues Rock

Intro (Which is also the solo and outro):

Part 1
e|-0-3-5-5\7--7-5-3-3\5--5-3-2-3--2-3-2-0----0h2--2-0-2-3--2-----------------|
B|-----------------------------------------3-----------------3-5--5-3-5------|
G|---------------------------------------------------------------------------|
D|---------------------------------------------------------------------------|
A|---------------------------------------------------------------------------|
E|---------------------------------------------------------------------------|

Part 2
e|-0-3-5-5\7--7-5-3-3\5--5-3-2-3--2-3-2-0----0h2--2-0-2-2\3-2\3-2\3----------|
B|-----------------------------------------3-------------------------3-5--5--|
G|---------------------------------------------------------------------------|
D|---------------------------------------------------------------------------|
A|---------------------------------------------------------------------------|
E|---------------------------------------------------------------------------|

e|---------------------------------------------------------------------------|
B|-3-5-----------------------------------------------------------------------|
G|---------------------------------------------------------------------------|
D|---------------------------------------------------------------------------|
A|---------------------------------------------------------------------------|
E|---------------------------------------------------------------------------|

Verse 1:
   Em                          D             Em
   ↓  ↑ ↓ ↓ ↓ ↓  ↓  ↑ ↓ ↓ ↓ ↓  ↓  ↑ ↓ ↓ ↓ ↓  ↓  ↑ ↓ ↓ ↓ ↓
e|-0--0-0-0-0-0--0--0-0-0-0-0--2--2-2-2-2-2--0--0-0-0-0-0--------------------|
B|-0--0-0-0-0-0--0--0-0-0-0-0--3--3-3-3-3-3--0--0-0-0-0-0--------------------|
G|-0--0-0-0-0-0--0--0-0-0-0-0--2--2-2-2-2-2--0--0-0-0-0-0--------------------| x2
D|-2--2-2-2-2-2--2--2-2-2-2-2--0--0-0-0-0-0--2--2-2-2-2-2--------------------|
A|-2--2-2-2-2-2--2--2-2-2-2-2----------------2--2-2-2-2-2--------------------|
E|-0--0-0-0-0-0--0--0-0-0-0-0----------------0--0-0-0-0-0--------------------|


Verse 2:
   Em            C             Em            D  A
   ↓  ↑ ↓ ↓ ↓ ↓  ↓  ↑ ↓ ↓ ↓ ↓  ↓  ↑ ↓ ↓ ↓ ↓  ↧  ↧
e|-0--0-0-0-0-0--0--0-0-0-0-0--0--0-0-0-0-0--2--0----------------------------|
B|-0--0-0-0-0-0--1--1-1-1-1-1--0--0-0-0-0-0--3--2----------------------------|
G|-0--0-0-0-0-0--0--0-0-0-0-0--0--0-0-0-0-0--2--2----------------------------|
D|-2--2-2-2-2-2--2--2-2-2-2-2--2--2-2-2-2-2--0--2----------------------------| 
A|-2--2-2-2-2-2--3--3-3-3-3-3--2--2-2-2-2-2-----0----------------------------|
E|-0--0-0-0-0-0----------------0--0-0-0-0-0----------------------------------|

   Em            C             Em            G  D
   ↓  ↑ ↓ ↓ ↓ ↓  ↓  ↑ ↓ ↓ ↓ ↓  ↓  ↑ ↓ ↓ ↓ ↓  ↧  ↧
e|-0--0-0-0-0-0--0--0-0-0-0-0--0--0-0-0-0-0--3--2----------------------------|
B|-0--0-0-0-0-0--1--1-1-1-1-1--0--0-0-0-0-0--3--3----------------------------|
G|-0--0-0-0-0-0--0--0-0-0-0-0--0--0-0-0-0-0--0--2----------------------------|
D|-2--2-2-2-2-2--2--2-2-2-2-2--2--2-2-2-2-2--0--0----------------------------| 
A|-2--2-2-2-2-2--3--3-3-3-3-3--2--2-2-2-2-2--2-------------------------------|
E|-0--0-0-0-0-0----------------0--0-0-0-0-0--3-------------------------------|

Verse 3:

  Em                          D             Em
   ↓  ↑ ↓ ↓ ↓ ↓  ↓  ↑ ↓ ↓ ↓ ↓  ↓  ↑ ↓ ↓ ↓ ↓  ↓  ↑ ↓ ↓ ↓ ↓
e|-0--0-0-0-0-0--0--0-0-0-0-0--2--2-2-2-2-2--0--0-0-0-0-0--------------------|
B|-0--0-0-0-0-0--0--0-0-0-0-0--3--3-3-3-3-3--0--0-0-0-0-0--------------------|
G|-0--0-0-0-0-0--0--0-0-0-0-0--2--2-2-2-2-2--0--0-0-0-0-0--------------------| x2
D|-2--2-2-2-2-2--2--2-2-2-2-2--0--0-0-0-0-0--2--2-2-2-2-2--------------------|
A|-2--2-2-2-2-2--2--2-2-2-2-2----------------2--2-2-2-2-2--------------------|
E|-0--0-0-0-0-0--0--0-0-0-0-0----------------0--0-0-0-0-0--------------------|

Verse 4:
   Em            C             Em            D  A
   ↓  ↑ ↓ ↓ ↓ ↓  ↓  ↑ ↓ ↓ ↓ ↓  ↓  ↑ ↓ ↓ ↓ ↓  ↧  ↧
e|-0--0-0-0-0-0--0--0-0-0-0-0--0--0-0-0-0-0--2--0----------------------------|
B|-0--0-0-0-0-0--1--1-1-1-1-1--0--0-0-0-0-0--3--2----------------------------|
G|-0--0-0-0-0-0--0--0-0-0-0-0--0--0-0-0-0-0--2--2----------------------------|
D|-2--2-2-2-2-2--2--2-2-2-2-2--2--2-2-2-2-2--0--2----------------------------| 
A|-2--2-2-2-2-2--3--3-3-3-3-3--2--2-2-2-2-2-----0----------------------------|
E|-0--0-0-0-0-0----------------0--0-0-0-0-0----------------------------------|

   Em            C             Em            G  D
   ↓  ↑ ↓ ↓ ↓ ↓  ↓  ↑ ↓ ↓ ↓ ↓  ↓  ↑ ↓ ↓ ↓ ↓  ↧  ↧
e|-0--0-0-0-0-0--0--0-0-0-0-0--0--0-0-0-0-0--3--2----------------------------|
B|-0--0-0-0-0-0--1--1-1-1-1-1--0--0-0-0-0-0--3--3----------------------------|
G|-0--0-0-0-0-0--0--0-0-0-0-0--0--0-0-0-0-0--0--2----------------------------|
D|-2--2-2-2-2-2--2--2-2-2-2-2--2--2-2-2-2-2--0--0----------------------------| 
A|-2--2-2-2-2-2--3--3-3-3-3-3--2--2-2-2-2-2--2-------------------------------|
E|-0--0-0-0-0-0----------------0--0-0-0-0-0--3-------------------------------|


Song:

Intro

Verse 1:
Ulična svetiljka, baca svetlost u krug
dok crni leptiri lete pravo na nju

Verse 2:
ali ne znaju da tu je kraj          x2
da ih ubija njene svetlost sjaj. 

Solo

Verse 3:
Nekad sam leteo, leptir bio i ja
svetlost me mamila, krila mi spržila

Verse 4:
crni leptiru, beži u noć           x2
jutro sačekaj, svetlost ce doć.

Outro


End



************************************

| /   slide up
| \   slide down
| h   hammer-on
| p   pull-off
| ~   vibrato
| +   harmonic
| x   Mute note
| b   Bend
| pb  Pre-bend
| br  Bend release
| pbr Pre-bend release
| brb Bend release bend
| ↓   Down
| ↑   Up
| ↧   Play chord down so that you can hear every string

************************************
Suggest correction
Creating personal tab
Creating personal tab
You can edit any tab online and save it as your Personal.

You can edit, replace or remove any tab part or add personal notes – all changes will be seen only by you.

Personal tabs can be accessed anytime from any device, even offline.
Learn more »
Give kudos to tab author, rate the tab!
1 2 3 4 5
comments
print report bad tab
guest
You may want to rate the tab now too:
select rating
Wanna post a correction for this tab? Suggest correction