Oops, an error
Loading. Please wait.

Dunave tab

2,821 views 1 this week
2 commentsread comments
1 2 3 4 5
2 more votes to show rating
add to favorites
×
Save as Personal and add changes to this tab that will be seen only by you. Learn more ›
×
You can save this tab as Personal to edit and correct it or add notes. All changes will be seen only by you. Learn more »
launch autoscroll
font size
0
reset
how to read this tab
guitar tuner
edit
Autoscroll
slow
fast
+/-
esc
set tempo
stop
Author
yu grupa
dunave
tabed by scepa 


    C           F           C           C     G
  e---------------------------------------------3--------------------]
  H---1--1--1-----1--1--1-----1--1--1-----1--1--3--------------------]
  G---0--0--0-----2--2--2-----0--0--0-----0--0--0--------------------]
  D---2--2--2-----3--3--3-----2--2--2-----2--2--0--------------------]
  A---3--3--3-----3--3--3-----3--3--3-----3--3--2--------------------] 
  E---------------------------------------------3--------------------]

      D     C     E     D         C           C     G
  e---2-2---------0-0---2-2-------------------------3----------------]
  H---3-3---1-1---0-0---3-3-------1--1--1-----1--1--3----------------]
  G---2-2---0-0---1-1---2-2-------0--0--0-----0--0--0----------------]
  D---0-0---2-2---2-2---0-0-------2--2--2-----2--2--0----------------]
  A---------3-3---2-2-------------3--3--3-----3--3--2----------------]
  E---------------0-0-------------------------------3----------------]

      D        C          D    C     E    D     D    C     C    G
  e---2-2-2-----------]---2-2--------0-0--2-2---2-2-------------3-3--]
  H---3-3-3----1-1-1--]---3-3--1-1---0-0--3-3---3-3--1-1---1-1--3-3--]
  G---2-2-2----0-0-0--]---2-2--0-0---1-1--2-2---2-2--0-0---0-0--0-0--]
  D---0-0-0----2-2-2--]---0-0--2-2---2-2--0-0---0-0--2-2---2-2--0-0--]
  A------------3-3-3--]--------3-3---2-2-------------3-3---3-3--2-2--]
  E-------------------]--------------0-0------------------------3-3--]


  solo 1
  e------------------------------8-10-8-]--10^(12)-(12)^10--7--10-7-7-]
  H-------------------5---8--10---------]-----------------------------]
  G------5---5-7-5----------------------]-----------------------------]
  D--5/7---7----------------------------]-----------------------------]
  A-------------------------------------]-----------------------------]
  E-------------------------------------]-----------------------------]

  e--7-10-10^(12)-(12)^10--7-10-10----10^(12)^10-7-/--5---3-5-8-8-8-10-10-]
  H-----------------------------------------------------------------------]
  G-----------------------------------------------------------------------]
  D-----------------------------------------------------------------------]
  A-----------------------------------------------------------------------]
  E-----------------------------------------------------------------------]

  e--10^(12)(12)^10-7-/-5--33-3-5-3-----------------------------------]
  H-------------------------------------------------------------------]
  G-------------------------------------------------------------------]
  D-------------------------------------------------------------------]
  A-------------------------------------------------------------------]
  E-------------------------------------------------------------------]


  solo 2
  e-------------------------------------------------------------------]
  H-------------------------------------------------------------------]
  G--(9)^7-5---5--------------5-----7^(9)(9)^7--5---7-5---------------]
  D----------7-----7-5-7p5---5----------------7-----------------------]
  A------------------------7------------------------------------------]
  E-------------------------------------------------------------------]

  e--------------8--10-8--7h8--5h7---3h5p3----------------------------]
  H-----8/10--8-------------------------------------------------------]
  G---79--------------------------------------------------------------]
  D-------------------------------------------------------------------]
  A-------------------------------------------------------------------]
  E-------------------------------------------------------------------]

  e-------------------------------------------------------------------]
  H-------------------------------------------------------------------]
  G--(9)^7-5---5-7---7^(9)(9)^7-5---5---------------------------------]
  D----------7--------------------7-----7-5-7p5---5--7----------------]
  A---------------------------------------------7---------------------]
  E-------------------------------------------------------------------]

  e--------------8-10-8---10-10-10-8-8-----------------8--10-10-------]
  H---------8-10-------------------------10-8--10p8-10----------------]
  G---5/7-9-----------------------------------------------------------]
  D-------------------------------------------------------------------]
  A-------------------------------------------------------------------]
  E-------------------------------------------------------------------]

  e-10^(12)(12)^10-8-8---7h8-8--5--7-7-3--5----3----------------------]
  H----------------------------------------------5-3-/-1-3-/-5-1-/-3--]
  G-----------------------------------------------------------------0-]
  D-------------------------------------------------------------------]
  A-------------------------------------------------------------------]
  E-------------------------------------------------------------------]

  e----------8-7-5-3-1-0---0-3-3/5-3----0-3-3/5-3---------------------]
  H------5-6----------------------------------------------------------]
  G--5-7--------------------------------------------------------------]
  D-------------------------------------------------------------------]
  A-------------------------------------------------------------------]
  E-------------------------------------------------------------------]

  e--5h8p5h7p5--3-3----5h8p5h7p5--3-8-]--10-8--15\12-12p8-8\5\3-------]
  H-----------------------------------]-------------------------------]
  G-----------------------------------]-------------------------------]
  D-------------------------------------------------------------------]
  A-------------------------------------------------------------------]
  E-------------------------------------------------------------------]


         C              F           C                     F
  Dunaveee ....moj Dunave....kakve mi... vesti vode donoseee...
  Dunaveee ....moj Dunave....pratis li ...moje cudne puteva....    
         C                  C  G    D         C     E    D   
  Jesam li ....jesam li jos uvek...sam bez ikoga...pusta obala...
  Tu gde ja ....gledaj jato ptica...nema obala....nama nikoga....

         C     C    G                           C    C   G
  Samojaaaaa   aaa  aaaaa             Napustenaaaa  aaaa aaaa

  D                        C
  Nek' nas sada ptice poveduu....
  D                        C
  Svojim letom pesmu uzdignu....
  D                   C
  Svetli nebo iznad nas...
  E            D
  ............srece glas...
  D             C
  Ljubav to je svet
  C             G 
  Ljubav nas je svet


:)

            
            
Suggest correction
Creating personal tab
Creating personal tab
You can edit any tab online and save it as your Personal.

You can edit, replace or remove any tab part or add personal notes – all changes will be seen only by you.

Personal tabs can be accessed anytime from any device, even offline.
Learn more »
Give kudos to tab author, rate the tab!
1 2 3 4 5
comments
print report bad tab
2 comments total.
0 reply
tordajav 2,836 Mar 31, 2008 12:43 PM

Pozz iz Sremske Mitrovice!
Pa ja nisam znao da ovde ima i naše muzike!!!?
Joooooj... pa to je do jaja!
Nadam se da se nećeš ljutiti, ali evo i da te ocenim;
za akorde bih ti dao 3, a za solo 4+, što vuče na 4.
Pozzzzzzzz

0 reply
tordajav 2,836 Apr 14, 2008 05:05 PM

Jao jao ljudi... pa ko od koga kopira tablature???
Vidjam na sajtu www.gitare.info iste stvari samo kopirane ovde, a različiti likovi su autori?!

guest
You may want to rate the tab now too:
select rating
Wanna post a correction for this tab? Suggest correction