Oops, an error
Loading. Please wait.

Od Zlata Jabuka bass

3,935 views 6 this week
2 commentsread comments
1 2 3 4 5
3 more votes to show rating
add to favorites
×
Save as Personal and add changes to this tab that will be seen only by you. Learn more ›
×
You can save this tab as Personal to edit and correct it or add notes. All changes will be seen only by you. Learn more »
launch autoscroll
font size
0
reset
guitar tuner
edit
Autoscroll
slow
fast
+/-
esc
set tempo
stop
Author
Difficulty
Band: Yu Grupa
Song: Od zlata jabuka
Tabed by: Pirit

standard tunning(E,A,D,G)
POCETAK i STROFA1 x3
G|----------------------------------------|
D|----------------------------------------|
A|-2--2-0--0------0--0-2--2-0--0----------|
E|-----------0--0----------------0--3--5--|

G|----------------------------------------|
D|----------------------------------------|
A|-2--2-0--0------0--0-2--2-0--0------2---|
E|-----------0--0----------------0--0-----|

STROFA2
G|-----------------------------------------------------------|
D|-----------------------------------------------------------|
A|-5--5-5----------0--0-0----------5--5-5--0--0-0--7~-7/10-7-|
E|---------3--3-3----------3--3-3----------------------------|

G|--------------------------------------------------------|
D|--------------------------------------------------------|
A|-5--5-5----------0--0-0----------5--5-5--0--0-0--7~~~-2-|
E|---------3--3-3----------3--3-3-------------------------|

REFREN x2
G|--------------------------------------|
D|--------------------------------------|
A|-0--0-2--2-----------0--0-2--0--------|
E|-----------0--0-3--3-----------0--0-3-|

G|--------------------------------------------------------|
D|-------------------------------------2-4-5-4-2----------|
A|---0--0-2--2-----------0--0-2--0-2-4-----------5-4-2-0--|
E|-3-----------0--0-3--3----------------------------------|

STROFA2
REFREN X2

KRAJ
G|----------------------------------------|
D|----------------------------------------|
A|-2--2-0--0------0--0-2--2-0--0----------|
E|-----------0--0----------------0--3--5--|

G|----------------------------------------|
D|----------------------------------------|
A|-2--2-0--0------0--0-2--2-0--0----2-2---|
E|-----------0--0----------------0--------|

Eto, to bi bilo to, sve je 100% tacno, samo sto na kraju refrena kada drugi put ponavlja 
produzuje onu skalu...

            
            
Suggest correction
Creating personal tab
Creating personal tab
You can edit any tab online and save it as your Personal.

You can edit, replace or remove any tab part or add personal notes – all changes will be seen only by you.

Personal tabs can be accessed anytime from any device, even offline.
Learn more »
Give kudos to tab author, rate the tab!
1 2 3 4 5
comments
print report bad tab
2 comments total.
0 reply
MrSurfer 10 Nov 23, 2011 06:07 PM

prelaz skala sucks man !

0 reply
Pirit 147 Nov 24, 2011 02:11 AM

Znam :))
to sam odavno pisao ali evo ti ispravka
I know man :))
I wrote that a long time ago, here's a correction:

---------------------------------------------
------------7--9--7--------------------------
--7--9--10-----------10--9--7----------------
-------------------------------10--9--7------

guest
You may want to rate the tab now too:
select rating
Wanna post a correction for this tab? Suggest correction