Oops, an error
Loading. Please wait.

Cousin Corona bass

version 2
version 2

Whole song

by Yuck
1,106 views 3 this week
no commentswrite comment
1 2 3 4 5
1 last vote to show rating
add to favorites
×
Save as Personal and add changes to this tab that will be seen only by you. Learn more ›
×
You can save this tab as Personal to edit and correct it or add notes. All changes will be seen only by you. Learn more »
launch autoscroll
font size
0
reset
guitar tuner
edit
Autoscroll
slow
fast
+/-
esc
set tempo
stop
Author
Hello guys and girls.
Bass tab for 'Cousin Corona', a B-side by the band Yuck.
This is my first tab, I don't really look at tab much.
But I stumbled across the other bass tabs for this song and noticed that they were 
either wrong or incomplete.
So I thought I'd help out and do my own.

Standard tuning.

Intro/Verse.
G|------------------------------------------------------------|
D|------------------------------------------------------------|
A|------------------------------------------------------------|
E|-5-5--222--9-9999--000------5--5--222--9-999--12-12h14-12---| x4


Chorus (No I don't need a vocation...)
G|------------------------------------------------------------|
D|------------------------------------------------------------|
A|-----5-5-555-2-2222222-000----------------------------------|
E|---------------------------2-222----------------------------|

G|------------------------------------------------------------|
D|------------------------------------------------------------|
A|-----5-5-555-2-2222222-000----------------------------------|
E|---------------------------2-222-0(let ring breifly)-0-5-0--|

Straight back into the verse.
Playned normally twice (as above) then for a third time with a slight variation:
G|------------------------------------------------------------|
D|------------------------------------------------------------|
A|------------------------------------------------------------|
E|-----5-5--222--9-9999--000------5--5--222--99999999---------|

Second chorus has a slight variation:
G|------------------------------------------------------------|
D|------------------------------------------------------------|
A|-----5-5-555-2-2222222-000----------------------------------|
E|---------------------------2-222----------------------------|

G|------------------------------------------------------------|
D|------------------------------------------------------------|
A|-----5-5-555-2-2222222-000----------------------------------|
E|---------------------------2-222-0-000000000000000----------|

Next part (I wanna go out on the weekend...)
G|---------------------------|
D|---------------------------|
A|-----5-5-555--0-0000000----|
E|---------------------------| x7

G|------------------------------------------------------------|
D|------------------------------------------------------------|
A|-----5-5-555------------------------------------------------|
E|--------------4-4444444--12-12-12-12-12-12h14-12------------|

Then play the ordinary verse riff 4 times while the guitar is soloing etc.

Then back to:
G|---------------------------|
D|---------------------------|
A|-----5-5-555--0-0000000----|
E|---------------------------| x7

The end part is:
G|------------------------------------------------------------|
D|------------------------------------------------------------|
A|-----5-5-555------------------------------------------------|
E|--------------4-4444444--12--12-12-12-12--------------------|

Bend the last 12(E) note around, let it feedback etc.
END.

I think this is pretty much perfect, but if there are any corrections, just let me know. 
Have fun.

PS - You have exquisite taste.

            
            
Suggest correction
Creating personal tab
Creating personal tab
You can edit any tab online and save it as your Personal.

You can edit, replace or remove any tab part or add personal notes – all changes will be seen only by you.

Personal tabs can be accessed anytime from any device, even offline.
Learn more »
Give kudos to tab author, rate the tab!
1 2 3 4 5
comments
print report bad tab
guest
You may want to rate the tab now too:
select rating
Wanna post a correction for this tab? Suggest correction