Oops, an error
Loading. Please wait.

Hearts In Motion tab

version 2
version 2

Whole song

by Yuck
226 views 6 this week
no commentswrite comment
1 2 3 4 5
3 more votes to show rating
add to favorites
×
Save as Personal and add changes to this tab that will be seen only by you. Learn more ›
×
You can save this tab as Personal to edit and correct it or add notes. All changes will be seen only by you. Learn more »
launch autoscroll
font size
0
reset
how to read this tab
guitar tuner
edit
Autoscroll
slow
fast
+/-
esc
set tempo
stop
-------------------------------------------------------------------------------
                             HEARTS IN MOTION - Yuck
-------------------------------------------------------------------------------

Used this video as a reference - https://www.youtube.com/watch?v=VkUViY-cwAg

Riff 1
e|-------10-----------9------------7-------------7--------|
B|----7------7-----7-----7------7-----7-----7h8------7----|
G|-7------------7-----------7------------7----------------|
D|--------------------------------------------------------|
A|--------------------------------------------------------|
E|--------------------------------------------------------|

E|-----------------------|
B|-----------------------|
G|--7---------------12---|
D|--x (sustained)---x----|
A|--5---------------10---|
E|-----------------------|


Riff 2
e|--------------------------------------------------------|
B|--------------------------------------------------------|
G|--------------------------------------------------------|
D|--------12----------11----------9---------------9-------|
A|-----9----------9-----------9-------------9h10----------|
E|-10---------10----------10-----------10-----------------|

Riff 3
e|-----------------------------------|
B|-----------------------------------|
G|-7---11--7---12---7---14---7---6---|
D|-x---x---x---x----x---x----x---x---|
A|-5---9---5---10---5---12---5---4---|
E|-----------------------------------|

Riff 4
e|-------------------------------------------|
B|-------------------------------------------|
G|-------------------------------------------|
D|--------5----------4----------2--------4---|
A|----2---------2-----------2---------2------|
E|-3---------3---------3-----------3---------|

VERSE
E|------x-x-x------x-x-x-------x-x-x-------------|
B|------x-x-x------x-x-x-------x-x-x-------------|
G|--7-7-x-x-x--7-7-x-x-x---5-7-x-x-x--7-7---4-4--|
D|------x-x-x------x-x-x-------x-x-x-------------|
A|--5-5-x-x-x--5-5-x-x-x---5-7-x-x-x--5-5---2-2--|
E|------x-x-x------x-x-x-------x-x-x-------------|

E|------x-x-x------x-x-x-------x-x-x---------------|
B|------x-x-x------x-x-x-------x-x-x---------------|
G|--7-7-x-x-x--7-7-x-x-x---5-7-x-x-x--7-7---12-12--|
D|------x-x-x------x-x-x-------x-x-x---------------|
A|--5-5-x-x-x--5-5-x-x-x---5-7-x-x-x--5-5---10-10--|
E|------x-x-x------x-x-x-------x-x-x---------------|




RIFF 1
VERSE
You call it systematic 
I say that’s a lie 
You said it’s mathematic 
It never is, it never was, it never changes 

G
Two hearts in motion 
RIFF 2
G
Two hearts in motion 
A
Have to beat at the same time 

RIFF 1
VERSE
Love changes like a season 
I say that’s a lie 
You said it’s never easy 
It never is, it never was, it never changes 

G
Two hearts in motion 
RIFF 3
G
Two hearts in motion 
A
Have to beat at the same time 

Bm          D
I know it’s hard to comprehend 
RIFF 4
Bm          D
I know it’s easy to pretend 
RIFF 4
Bm                              D
But after gin and wine, doesn’t leave me too much time to pass away 
RIFF 4
Bm                              D
But after gin and wine, doesn’t leave me too much time to fade away 
RIFF 4
W                 A
Never fade away

INTRO

G
Two hearts in motion 
RIFF 3
G
Two hearts in motion 
A
Have to beat at the same time 
D


************************************

| /   slide up
| \   slide down
| h   hammer-on
| p   pull-off
| ~   vibrato
| +   harmonic
| x   Mute note
| b   Bend
| pb  Pre-bend
| br  Bend release
| pbr Pre-bend release
| brb Bend release bend

************************************
Suggest correction
Creating personal tab
Creating personal tab
You can edit any tab online and save it as your Personal.

You can edit, replace or remove any tab part or add personal notes – all changes will be seen only by you.

Personal tabs can be accessed anytime from any device, even offline.
Learn more »
Give kudos to tab author, rate the tab!
1 2 3 4 5
comments
print report bad tab
guest
Wanna post a correction for this tab? Suggest correction