Oops, an error
Loading. Please wait.

Rebirth tab

by Yuck
160 views 3 this week
no commentswrite comment
1 2 3 4 5
3 more votes to show rating
add to favorites
×
Save as Personal and add changes to this tab that will be seen only by you. Learn more ›
×
You can save this tab as Personal to edit and correct it or add notes. All changes will be seen only by you. Learn more »
launch autoscroll
font size
0
reset
how to read this tab
guitar tuner
edit
Autoscroll
slow
fast
+/-
esc
set tempo
stop
Author
[Intro]

e|---0------0------0------0---------------------------------------------------|
B|---2------3------2------3---------------------------------------------------|
G|---2------2------2------2---------------------------------------------------|
D|---0------3------0------3---------------------------------------------------|
A|---0------0------0------0---------------------------------------------------|
E|----------------------------------------------------------------------------|


[Verse] 

"Hold me down, in the sunlight"

e|---0------0------0------0---------------------------------------------------|
B|---2------3------2------3---------------------------------------------------|
G|---2------2------2------2---------------------------------------------------|
D|---0------3------0------3---------------------------------------------------|
A|---0------0------0------0---------------------------------------------------|
E|----------------------------------------------------------------------------|

"To sacrifice myself, I don't want your love I want you"

e|---3--2---0------3--2---0---------------------------------------------------|
B|---3--3---3------3--3---3---------------------------------------------------|
G|---0--0---2------0--0---2---------------------------------------------------|
D|---0--0---3------0--0---3---------------------------------------------------|
A|----------0-------------0---------------------------------------------------|
E|----------------------------------------------------------------------------|

"Slide me down, deep like the ocean"

e|---0------0------0------0---------------------------------------------------|
B|---2------3------2------3---------------------------------------------------|
G|---2------2------2------2---------------------------------------------------|
D|---0------3------0------3---------------------------------------------------|
A|---0------0------0------0---------------------------------------------------|
E|----------------------------------------------------------------------------|

"To contemplate myself, I don't want your love I want you"

e|---3--2---0------3--2---0---------------------------------------------------|
B|---3--3---3------3--3---3---------------------------------------------------|
G|---0--0---2------0--0---2---------------------------------------------------|
D|---0--0---3------0--0---3---------------------------------------------------|
A|----------0-------------0---------------------------------------------------|
E|----------------------------------------------------------------------------|

"hard......hard, happy all the time"

e|---0-------------0----------------------------------------------------------|
B|---3-------------2----------------------------------------------------------|
G|---3-------------2----------------------------------------------------------|
D|---3-------------0----------------------------------------------------------|
A|---1-------------0----------------------------------------------------------| x2
E|----------------------------------------------------------------------------|


[Chorus]

"Dropped in a maze, of hopeless abandon"
e|---0------0------0------0---------------------------------------------------|
B|---2------3------2------3---------------------------------------------------|
G|---2------2------2------2---------------------------------------------------|
D|---0------3------0------3---------------------------------------------------|
A|---0------0------0------0---------------------------------------------------|
E|----------------------------------------------------------------------------|

"To understand myself. I don’t want your pain, I want you"

e|---3--2---0------3--2---0---------------------------------------------------|
B|---3--3---3------3--3---3---------------------------------------------------|
G|---0--0---2------0--0---2---------------------------------------------------|
D|---0--0---3------0--0---3---------------------------------------------------|
A|----------0-------------0---------------------------------------------------|
E|----------------------------------------------------------------------------|

"Sour sound echos around me"

e|---0------0------0------0---------------------------------------------------|
B|---2------3------2------3---------------------------------------------------|
G|---2------2------2------2---------------------------------------------------|
D|---0------3------0------3---------------------------------------------------|
A|---0------0------0------0---------------------------------------------------|
E|----------------------------------------------------------------------------|

"And breaks me down inside. I don’t want your pain, I want you"

e|---3--2---0------3--2---0---------------------------------------------------|
B|---3--3---3------3--3---3---------------------------------------------------|
G|---0--0---2------0--0---2---------------------------------------------------|
D|---0--0---3------0--0---3---------------------------------------------------|
A|----------0-------------0---------------------------------------------------|
E|----------------------------------------------------------------------------|

"hard. Hard. Happy all the time"

e|---0-------------0-----------0----------------------------------------------|
B|---3-------------5-----------2----------------------------------------------|
G|---3-------------5-----------2----------------------------------------------|x2
D|---3-------------5-----------0----------------------------------------------|
A|---1-------------3-----------0----------------------------------------------|
E|----------------------------------------------------------------------------|

"Go down. I'd wanna go down"... etc

e|---0------0------0------0---------------------------------------------------|
B|---2------3------2------3---------------------------------------------------|
G|---2------2------2------2---------------------------------------------------|x4
D|---0------3------0------3---------------------------------------------------|
A|---0------0------0------0---------------------------------------------------|
E|----------------------------------------------------------------------------|

            
            
Suggest correction
Creating personal tab
Creating personal tab
You can edit any tab online and save it as your Personal.

You can edit, replace or remove any tab part or add personal notes – all changes will be seen only by you.

Personal tabs can be accessed anytime from any device, even offline.
Learn more »
Give kudos to tab author, rate the tab!
1 2 3 4 5
comments
print report bad tab
guest
You may want to rate the tab now too:
select rating
Wanna post a correction for this tab? Suggest correction