Oops, an error
Loading. Please wait.

Rubber tab

by Yuck
6,410 views 15 this week
3 commentsread comments
1 2 3 4 5
x 3
add to favorites
×
Save as Personal and add changes to this tab that will be seen only by you. Learn more ›
×
You can save this tab as Personal to edit and correct it or add notes. All changes will be seen only by you. Learn more »
launch autoscroll
font size
0
reset
how to read this tab
guitar tuner
edit
Autoscroll
slow
fast
+/-
esc
set tempo
stop
Author
-------------------------------------------------------------------------------
                             Rubber - Yuck
-------------------------------------------------------------------------------
Tabbed by: Peter C.
Email:

Tuning: Standard

Very simple song once you get the rhythm down. There are two guitars, the first is that
swirling distorted sound you hear throughout the song. To recreate that sound, I use max
fuzz or distortion on the neck pedal with the tone knob rolled back. You can use a phase 
or chorus pedal set on low speed to get the swirling effect. The second guitar is either
clean or light distorted, and it plays the individual notes you hear. I will tab out both:

Guitar 1: Swirling
Guitar 2: Clean



Guitar 1: Intro/Verse

     B
e|-------------------|
B|-------------------|
G|---8--8--8b--8-----|
D|---9--9--9b--9-----|
A|---9--9--9b--9-----|
E|---7--7--7b--7-----|

You can either slightly bend each note (like a quarter step), or if you have a whammy
bar, pull up on it at the appropriate time.


Guitar 2: Intro/Verse Fills

e|-------------------|---------------------|-----------------------|
B|-------------------|---------------------|-----------------------|
G|-------------------|---------------------|-----------------------|
D|------9--9------9--|-------9--9--11--13--|----------9--11--13----|
A|--11--------11-----|---11----------------|---11--9---------------|
E|-------------------|---------------------|-----------------------|

e|----------------------|
B|----------------------|
G|----------------------|
D|----------------------|
A|--11--9--7--6---------|
E|---------------7--7---|

Guitar 1: Chorus/Outro

                               Should I give in?
          B                          C#m7/E
e|---------------------------------------------------------------------------o|
B|---------------------------------------12---9--------9---12--9-------------o|
G|---8--8--8b--8---8--8--8b--8-------9---9----9----9---9---9---9-------------o|
D|---9--9--9b--9---9--9--9b--9---9---9---9----9----9---9---9---9-------------o|
A|---9--9--9b--9---9--9--9b--9---11--11--11---11---11--11--11--11------------o|
E|---7--7--7b--7---7--7--7b--7---0---0---0----0----0---0---0---0-------------o|


Those are the correct chords, listen to the song to get the rhythm and number of times
to play each chord right.




************************************

| /   slide up
| \   slide down
| h   hammer-on
| p   pull-off
| ~   vibrato
| +   harmonic
| x   Mute note
| b   Bend
| pb  Pre-bend
| br  Bend release
| pbr Pre-bend release
| brb Bend release bend

************************************

            
            
Suggest correction
Creating personal tab
Creating personal tab
You can edit any tab online and save it as your Personal.

You can edit, replace or remove any tab part or add personal notes – all changes will be seen only by you.

Personal tabs can be accessed anytime from any device, even offline.
Learn more »
Give kudos to tab author, rate the tab!
1 2 3 4 5
comments
print report bad tab
3 comments total.
+1 reply
TheFamousCow 70 Dec 31, 2011 03:58 AM

Good to see this song Finally tabbed and accurate!

0 reply
Username30 10 Feb 13, 2012 01:18 PM

-x-x-x-x-x-x-x -x- |-x-x-x-x-x-x-x-x
-x-x-x-x-x-x-x -x- |-x-x-x-x-x-x-x-x
-6-6-6-6-6-6-6h7-6h7|-6-6-6-6-6-6-6h7-6h7
-7-7-7-7-7-7-7- 7- |-7-7-7-7-7-7-7- 7
-7-7-7-7-7-7-7 7- |-5-5-5-5-5-5 5- 5
-0-0-0-0-0-0-0 0- |-0-0-0-0-0-0-0- 0

could swear thats a tone too high

+1 reply
peter640 70 Feb 14, 2012 02:41 PM

I'm almost positive it's in B.

guest
You may want to rate the tab now too:
select rating
Wanna post a correction for this tab? Suggest correction