Oops, an error
Loading. Please wait.

Set In Motion chords

by Yuck
16 views 9 this week
no commentswrite comment
1 2 3 4 5
2 more votes to show rating
add to favorites
×
Save as Personal and add changes to this tab that will be seen only by you. Learn more ›
×
You can save this tab as Personal to edit and correct it or add notes. All changes will be seen only by you. Learn more »
launch autoscroll
font size
0
reset
transpose
0
reset
display chords
guitar tuner
edit
Autoscroll
slow
fast
+/-
esc
set tempo
stop
Strumming
There is no strumming pattern for this song yet. and get +5 IQ
[Intro] 
C   G   Am  G   F  C  F  G

e|---------------------------------------------------------------------------|
B|----13---------------------------------------------------------------------|
G|-12----17-16-14---14-12---9-7-5-5-7-9--9-7-5-5-9-7-------------------------|
D|---------------------------------------------------------------------------|
A|---------------------------------------------------------------------------|
E|---------------------------------------------------------------------------|

e|---------------------------------------------------------------------------|
B|-----13---20-18-17--13-12---10-8-5-5-6-8--10-8-5-5-8-6---------------------|
G|-12------------------------------------------------------------------------|
D|---------------------------------------------------------------------------|
A|---------------------------------------------------------------------------|
E|---------------------------------------------------------------------------|

[Verse]
C             G
It's trouble coming in
Am                 G
Dark clouds at the edge of town
            F               C
I see the light from your room
F                       G
I know you are leaving soon
C                    G
It's trouble all around
Am                    G
A heavy crane coming down
F                   C  
I feel it getting worse
F                           G
Seems like we're stuck in reverse

[Chorus]    
F                           
All the wheels been set in motion
C
On a course, I have been chosen
F
All the wheels been set in motion
G  
On a course, i have been chosen

[Instrumental]
  C G Am  G F C F G 
e|---------------------------------------------------------------------------|
B|----13---------------------------------------------------------------------|
G|-12----17-16-14---14-12---9-7-5-5-7-9--9-7-5-5-9-7-------------------------|
D|---------------------------------------------------------------------------|
A|---------------------------------------------------------------------------|
E|---------------------------------------------------------------------------|

[Verse]
C            G
It's trouble, over me
Am                G
Dark clouds, as far as I see
F                       C
I hear the wind kicking up
F                               C
I keep drinking from my broken cup
C          G
The sun will break through
Am               G
The blue skies will be over here
F                          C
I see the light from your room
F                           G
I hope you'll be back soon

[Chorus]    
F                           
All the wheels been set in motion
C
On a course, I have been chosen
F
All the wheels been set in motion
G 
On a course, i have been chosen
Suggest correction
Creating personal tab
Creating personal tab
You can edit any tab online and save it as your Personal.

You can edit, replace or remove any tab part or add personal notes – all changes will be seen only by you.

Personal tabs can be accessed anytime from any device, even offline.
Learn more »
Give kudos to tab author, rate the tab!
1 2 3 4 5
comments
print report bad tab
guest
You may want to rate the tab now too:
select rating
Wanna post a correction for this tab? Suggest correction