Oops, an error
Loading. Please wait.

Ill Be Bass Tab

by YUI
1,323 views 6 this week
no commentswrite comment
1 2 3 4 5
please rate
add to favorites
launch autoscroll
font size
0
reset
guitar tuner
Tab Pro tools
  • play this tab
  • loop segment
  • change instrument
  • show fretboard
  • metronome
×
Best way to learn
"Ill Be"
Autoscroll
slow
fast
+/-
esc
set tempo
stop
Contributor
YUI - I'll be


G|-------------------------------------------------------|
D|-------------------------------------------------------|
A|/10\--5-5-5-/5--5-5--------/10-------------------------|
E|---------------------3-3-3------3-3--5-5-5-/5--5-5--5-7|

--------------------------------------------------------|
-7-9--7-------------------------------------------------|
--------7\--5-5-5-/5--5-5-------------------------------|
---------------------------3-3-3-/3--3-3--5-5-5-/5--5-5-|

Intro
G|----------------------------------------------7/12--11----|
D|-------------------------------------------------------12-|
A|5-5-5-/5--5-5--------4-5-7-7/12---------------------------|
E|---------------5-5-5-------------8(6x)-8\--3--------------|


Verse
G|----------------------------------------------------7h9-7--6----|
D|--------------------------/7--6------------------------------7\-|
A|/10\------10--9-----------------7--------7--9\------------------|
E|------3/--------10--3-4-5----------7-7-7--------5-7-------------|

G|--------------------------------------------|
D|2/--2--5\------3-5--3--------------/9-/9-9\-|
A|-----------0-2--------5---------------------|
E|-------------------------5(8x)-7-7----------|


Chorus
G|------------------------------------------------------------|
D|--------------------------------------------------7-9--7----|
A|5-5-5-/5--5-5--------/10---------------------------------7\-|
E|---------------3-3-3------3-3--5-5-5-/5--5-5--5-7-----------|

G|--------------------------------------------------------------|
D|-------------------------------------------------9-7----------|
A|5-5-5-/5--5-5-----------------------------------------/10-----|
E|---------------3-3-3-/3--3-3--5-5-5-/5--5-5--5-7----------10\-|


Intro
G|------------------------------7/12--11-12\-|
D|-------------------------------------------|
A|5-5-5-/5--5-5--------3(8x)-----------------|
E|---------------5(8x)-------3---------------|

G|------7--6------------------------------------------------|
D|-----------7----------------------------------------------|
A|5-5-5---------------------------------------5/10--10-9h10-|
E|--------------5-5-5-/5--5-5--8--/8--8-8\--3---------------|


Verse
G|----------------------------------------------------7h9-7--6----|
D|--------------------------/7--6------------------------------7\-|
A|/10\------10--9-----------------7--------7--9\------------------|
E|------3/--------10--3-4-5----------7-7-7--------5-7-------------|

G|--------------------------------------------|
D|2/--2--5\------3-5--3--------------/9-/9-9\-|
A|-----------0-2--------5---------------------|
E|-------------------------5(8x)-7-7----------|


Chorus
G|------------------------------------------------------------|
D|--------------------------------------------------7-9--7----|
A|5-5-5-/5--5-5--------/10---------------------------------7\-|
E|---------------3-3-3------3-3--5-5-5-/5--5-5--5-7-----------|

G|------------------------------------------------------------|
D|-------------------------------------------------9-7--------|
A|5-5-5-/5--5-5-----------------------------------------10----|
E|---------------3-3-3-/3--3-3--5-5-5-/5--5-5--5-7---------10-|


Solo
G|------------------------------------------------------------|
D|--------------------------------------------------7-9--7----|
A|5-5-5-/5--5-5--------/10---------------------------------7\-|
E|---------------3-3-3------3-3--5-5-5-/5--5-5--5-7-----------|

G|------------------------------------------------------------|
D|-------------------------------------------------9-7--------|
A|5-5-5-/5--5-5-----------------------------------------10----|
E|---------------3-3-3-/3--3-3--5-5-5-/5--5-5--5-7---------10-|


Bridge
G|----------------------------------------------7-------|
D|------------------------------------------------------|
A|---------5-7-5--5-7-5----5\--------5-7-5--5-7----5----|
E|3-0-3-5----------------5-----3--5------------------5\-|

G|-----------------------------------------------------------------|
D|----------2-2/7----------7/9----------------------/7\------------|
A|------4-5-------5-5-5--7-----------/7-7(8x)-0(6x)----------------|
E|3-0-3------------------------0(7x)--------------------5-5-5--5-5-|

Chorus
G|7-7-6-6---------------------------------------------------------------------|
D|--------7---------------------------------------------------------7-9--7----|
A|-----------10\--5-5-5-/5--5-5--------/10---------------------------------7\-|
E|-------------------------------3-3-3------3-3--5-5-5-/5--5-5--5-7-----------|

G|--------------------------------------------------------------|
D|-------------------------------------------------9-7----------|
A|5-5-5-/5--5-5-----------------------------------------/10-----|
E|---------------3-3-3-/3--3-3--5-5-5-/5--5-5--5-7----------10\-|


Outro
G|------------------------------------------------------|
D|------------------------------------------------------|
A|5-5-5-/5--5-5------------------------------3/10--9-10-|
E|---------------5-5-5-/5--5-5--8(6x)-8\--3-------------|

G|----------------------------------------------7/12--11----|
D|-------------------------------------------------------12-|
A|5-5-5-/5--5-5--------4-5-7-7/12---------------------------|
E|---------------5-5-5-------------8(6x)-8\--3--------------|

OK, forget the tab above..
Here is the final version in gp.. 
http://www.mediafire.com/?mk8ibuq3kq6lbvq

Tabbed by Muya R..
Ya~ha~..!!
comments
We did not receive enough feedback on this tab! Please rate:
print report bad tab
1 2 3 4 5
I want to post or [tab]
guest
You may want to rate the tab now too:
select rating
Please do not post tabs as comments. Select "correction" instead!