Oops, an error
Loading. Please wait.

Rolling Star tab

version 3
version 3

Whole song

Interactive

by YUI
15,356 views 1 this week
5 commentsread comments
1 2 3 4 5
x 6
add to favorites
×
Save as Personal and add changes to this tab that will be seen only by you. Learn more ›
×
You can save this tab as Personal to edit and correct it or add notes. All changes will be seen only by you. Learn more »
launch autoscroll
font size
0
reset
how to read this tab
guitar tuner
backing track
0:00
0:00
edit
Autoscroll
slow
fast
+/-
esc
set tempo
stop
YUI /Rolling star

Lyrics & Music:YUI

1|---------------- -------0------0- -------0------0- -------0------0-|
2|---------------- -----3------3--- -----3------3--- -----2------2---|
3|---------------- -4-------------- -2-------------- -2--------------|
4|---------------- ---------------- ---------------- ----------------|
5|---------------- ---------------- ---------------- ----------------|
6|---------------- ---------------- ---------------- ----------------|


1|-------5------5- -------0------0- -------0------0- -------0------0-|
2|-----0------0--- -----3------3--- -----3------3--- -----2------2---|
3|-0-------------- -4-------------- -2-------------- -2--------------|
4|---------------- ---------------- ---------------- ----------------|
5|---------------- ---------------- ---------------- ----------------|
6|---------------- ---------------- ---------------- ----------------|

1|-------5-------- -5-XX-XX-5-XXXX5 ---------------- ----------------|
2|-----0------0--- ---XX-XX---XXXX- ---------------- ----------------|
3|-0-------------- -4-XX-XX-4-XXXX4 ---------------- ----------------|
4|---------------- -3-XX-XX-3-XXXX3 ---------------- ----------------|
5|---------------- ---------------- ---------------- ----------------|
6|---------------- ---------------- ---------------- ----------------|


1|---------------- ------------14-- ---------------- ----------------|
2|---------------- --------------15 ---------------- ----------------|
3|---------------- ----------14---- ---------------- ----------------|
4|---------------- ---------------- ---------------- ----------------|
5|---------------- ---------------- ---------------- ----------------|
6|---------------- ---------------- ---------------- ----------------|


1|---------------- ---0-0-0-0-0-0-0 -2---X-2---2-2-- -X---X-X--X-X-X-|
2|---------------- ---3-3-3-3-3-3-3 -2---X-2---2-2-- -X---X-X--X-X-X-|
3|---------------- ---4-4-4-4-4-4-4 -3---X-3---3-3-- -5---X-X--X-X-X-|
4|---------------- ---------------- -4---X-4---4-4-- -4---X-X--X-X-X-|
5|---------------- ---------------- -4---X-4---4-4-- -4---X-X--X-X-X-|
6|---------------- ---------------- -2---X-2---2-2-- -3---X-X--X-X-X-|

                                       M¨              M¨
1|-X---X-X-----X-- -X---X-X--X-X--- ---------------- -----------------|
2|-X---X-X-----X-- -X---X-X--X-X--- ---------------- -----------------|
3|-3---X-3-----3-- -5---X-X--X-X--- ---------------- -----------------|
4|-4---X-4-----4-- -4---X-X--X-X--- -4-4-4-4-4-4-4-4 -7-7-7-7-7-7-7-7-|
5|-4---X-4-----4-- -4---X-X--X-X--- -2-2-2-2-2-2-2-2 -5-5-5-5-5-5-5-5-|
6|-2---X-2-----2-- -3---X-X--X-X--- ---------------- -----------------|

     M¨              M M   M M        M¨              M¨
1|---------------- ---------------- ---------------- -----------------|
2|---------------- ---------------- ---------------- -----------------|
3|---------------- ---------------- ---------------- -----------------|
4|---------------- ---------------- -4-4-4-4-4-4-4-4 -7-7-7-7-7-7-7-7-|
5|-7-7-7-7-7-7-7-7 -5-5-5-5-5-5-5-- -2-2-2-2-2-2-2-2 -5-5-5-5-5-5-5-5-|
6|-5-5-5-5-5-5-5-5 -3-3-3-3-3-3-3-- ---------------- -----------------|

     M¨              M M   M M
1|---------------- ----------------|
2|---------------- ----------------|
3|---------------- ----------------|
4|---------------- ----------------|
5|-7-7-7-7-7-7-7-7 -5-5-5-5-5-5-5--|
6|-5-5-5-5-5-5-5-5 -3-3-3-3-3-3-3--|              X2


1|----------14---- ----------14---- ----------12---- ----------14----|
2|----------15---- ----------15---- ----------14---- ----------15----|
3|---------------- ---------------- ---------------- ----------16----|
4|---------------- ---------------- ---------------- ----------------|
5|---------------- ---------------- ---------------- ----------------|
6|---------------- ---------------- ---------------- ----------------|

Guitar solo
with wah¨
1|---------------- ---------------- ---------9-9-9-9 ----------------|
2|---------------- --------3------- ---------------- ----------------|
3|---------2------ -2-4------------ -6-6-6-6-------- ---4----7-------|
4|-----0-2---4-4-5 ---------------- ---------------- -5--------------|
5|-0-2------------ ---------------- ---------------- ----------------|
6|---------------- ---------------- ---------------- ----------------|

                                          s           s
1|---------------- ------------------- ----------------------|
2|---------------- -----------15-15-15 -15-12-12-12-12-7-7-7-|
3|---------------- -----------14-14-14 -14-11-11-11-11-7-7-7-|
4|---------------- ------------------- ----------------------|
5|---------------- ------------------- ----------------------|
6|-2---X-X-2-----2 -X-3---3-3--------- ----------------------|

 cu&cd
 ----------------|
 -7-7-7-7-7-7-7--|
 ----------------|
 ----------------|
 ----------------|
 ----------------|


   cu&cd                                 s        s        s
1|---------------- ------------------ -------------------------|
2|---------------- ---7-9--8-15-15-15 -14-15-15-14-15-15-14-15-|
3|-3-3-3-3-3-3-3-3 -4--------14-14-14 -13-14-14-13-14-14-13-14-|
4|---------------- ------------------ -------------------------|
5|---------------- ------------------ -------------------------|
6|---------------- ------------------ -------------------------|

         cu
 -------------------------|
 -15-15-15-15--18---18-15-|
 -14-14-14-14-------------|
 -------------------------|
 -------------------------|
 -------------------------|

   cu  cu  cu         cu&cd      ©
1|---------------- ---------------- -----3-2---3---- -----3-2---3-----|
2|-5---7---8------ -10--10--10----- -3-------------3 ---------------3-|
3|-7---9---10----- -12--12--12----- ---------------- -----------------|
4|---------------- ---------------- ---------------- -----------------|
5|---------------- ---------------- ---------------- -----------------|
6|---------------- ---------------- ---------------- -----------------|


1|-----3-2---3---5 ---3---2---3-2-2 -----3-2---3---- -----3-2---3-----|
2|---------------- ---------------- -3-------------3 ---------------3-|
3|---------------- ---------------- ---------------- -----------------|
4|---------------- ---------------- ---------------- -----------------|
5|---------------- ---------------- ---------------- -----------------|
6|---------------- ---------------- ---------------- -----------------|


1|-----3-2---3---5 ---3---2---3-2-2 -----3-2---3---- -----3-2---3-----|
2|-3-------------- ---------------- -3-------------3 ---------------3-|
3|---------------- ---------------- ---------------- -----------------|
4|---------------- ---------------- ---------------- -----------------|
5|---------------- ---------------- ---------------- -----------------|
6|---------------- ---------------- ---------------- -----------------|


1|-----3-2---3---5 ---3---2---3-2-- -----3-3---3---- -----3-2---3-----|
2|---------------- ---------------- -3-------------- -3-------------3-|
3|---------------- ---------------- ---------------- -----------------|
4|---------------- ---------------- ---------------- -----------------|
5|---------------- ---------------- ---------------- -----------------|
6|---------------- ---------------- ---------------- -----------------|

                                                        M
1|-----3-2---3---5 ---------------- -5-XXXX-5------- -----------------|
2|---------------- -5-XXXX-5-XXXX-5 -4-XXXX-4------- -----------------|
3|---------------- -6-XXXX-6-XXXX-6 -4-XXXX-4------- -----------------|
4|---------------- -7-XXXX-7-XXXX-7 ---------------- -4-4-4-4-4-4-4-4-|
5|---------------- ---------------- ---------------- -2-2-2-2-2-2-2-2-|
6|---------------- ---------------- ---------------- -----------------|

     M                M                M M   M M   M    M
1|---------------- ---------------- ---------------- -----------------|
2|---------------- ---------------- ---------------- -----------------|
3|---------------- ---------------- ---------------- -----------------|
4|-7-7-7-7-7-7-7-7 ---------------- ---------------- -----------------|
5|-5-5-5-5-5-5-5-5 -7-7-7-7-7-7-7-7 -5-5-5-5-5-5-5-5 -4-4-4-4-4-4-4-4-|
6|---------------- -5-5-5-5-5-5-5-5 -3-3-3-3-3-3-3-3 -2-2-2-2-2-2-2-2-|

     M                M                M M   M M   M
1|---------------- ---------------- ---------------- ----------14----|
2|---------------- ---------------- ---------------- ----------15----|
3|---------------- ---------------- ---------------- ----------------|
4|-7-7-7-7-7-7-7-7 ---------------- ---------------- ----------------|
5|-5-5-5-5-5-5-5-5 -7-7-7-7-7-7-7-7 -5-5-5-5-5-5-5-5 ----------------|
6|---------------- -5-5-5-5-5-5-5-5 -3-3-3-3-3-3-3-3 ----------------|


1|----------14---- ----------12---- ----------14---- ----------14----|
2|----------15---- ----------14---- ----------15---- ----------15----|
3|---------------- ---------------- ----------16---- ----------------|
4|---------------- ---------------- ---------------- ----------------|
5|---------------- ---------------- ---------------- ----------------|
6|---------------- ---------------- ---------------- ----------------|


1|----------14---- ----------12---- ----------14---- ----------------|
2|----------15---- ----------14---- ----------15---- ----------------|
3|---------------- ---------------- ----------16---- ----------------|
4|---------------- ---------------- ---------------- ----------------|
5|---------------- ---------------- ---------------- ----------------|
6|---------------- ---------------- ---------------- ----------------|

with wah¨
1|---------------- ---------------- ---------9-9-9-9 ----------------|
2|---------------- --------3------- ---------------- -------6--------|
3|---------2------ -2-4------------ -6-6-6-6-------- ---4-------4----|
4|-----0-2---4-4-5 ---------------- ---------------- -5-----------5--|
5|-0-2------------ ---------------- ---------------- ----------------|
6|---------------- ---------------- ---------------- ----------------|

                ©
1|---------------- -------0------0- -------0------0- -------0------0-|
2|-6---6-6-6-6-6-6 -----3------3--- -----3------3--- -----2------2---|
3|-4---4-4-4-4-4-4 -4-------------- -2-------------- -2--------------|
4|---------------- ---------------- ---------------- ----------------|
5|---------------- ---------------- ---------------- ----------------|
6|---------------- ---------------- ---------------- ----------------|


1|-------5------5- -------0------0- -------0------0- -------0------0-|
2|-----0------0--- -----3------3--- -----3------3--- -----2------2---|
3|-0-------------- -4-------------- -2-------------- -2--------------|
4|---------------- ---------------- ---------------- ----------------|
5|---------------- ---------------- ---------------- ----------------|
6|---------------- ---------------- ---------------- ----------------|


1|--------5------5 --------5------5 -5-XXXX-5-XXXXX-5-|
2|------0------0-- ------0------0-- ---XXXX---XXXXX---|
3|-0-------------- -0-------------- -4-XXXX-4-XXXXX-4-|
4|---------------- ---------------- -5-XXXX-5-XXXXX-5-|
5|---------------- ---------------- ------------------|
6|---------------- ---------------- ------------------|


http://www.youtube.com/watch?v=IMuphHzbPfs
ª
I played this tab.

            
            
Suggest correction
Creating personal tab
Creating personal tab
You can edit any tab online and save it as your Personal.

You can edit, replace or remove any tab part or add personal notes – all changes will be seen only by you.

Personal tabs can be accessed anytime from any device, even offline.
Learn more »
comments
print report bad tab
5 comments total. Showing first comments.
0 reply
Negi-sensEi 10 Sep 26, 2007 04:56 AM

great!!!

0 reply
Negi-sensEi 10 Sep 26, 2007 04:56 AM

nuf said....

0 reply
hidesuke 10 Oct 23, 2007 12:26 AM

bravo! excellent tab! sugeee!

guest
Wanna post a correction for this tab? Suggest correction