Oops, an error
Loading. Please wait.

Rolling Star Tab

version 5
version 5

Whole song

Interactive

by YUI
4,878 views 1 this week
no commentswrite comment
1 2 3 4 5
1 last vote to show rating
add to favorites
launch autoscroll
font size
0
reset
how to read this tab
guitar tuner
backing track
0:00
0:00
Autoscroll
slow
fast
+/-
esc
set tempo
stop
Author
INTRO
e|-------0---0-------0----0------0---0-------0---0-------5---5|
B|-----3---3-------3---3-------2---2-------3---3-------3---3--|
G|---4-----------2-----------2-----------0-----------2--------|
D|------------------------------------------------------------|  x2
A|------------------------------------------------------------|
E|------------------------------------------------------------|

e|------5-x-x-5-x-x-5--|
B|------3-x-x-3-x-x-3--|
G|------0-x-x-0-x-x-0--|
D|---------------------|
A|---------------------|
E|---------------------|
          s s   s s

VERSE
e|-----------------------------------------------------|------15------|
B|-----------------------------------------------------|---------16---|
G|-7-x-x-x-x-x-x---------------------7-x-x-x-x-x-x-x---|---14---------|
D|-7-x-x-x-x-x-x---5-x-x-x-x-x-x-x---7-x-x-x-x-x-x-x---|--------------|
A|-5-x-x-x-x-x-x---5-x-x-x-x-x-x-x---5-x-x-x-x-x-x-x---|--------------|
E|-----------------3-x-x-x-x-x-x-x---------------------|--------------|
      
e|-----------------------------------|
B|-----------------------------------|
G|-7-x-x-x-x-x-x---------------------|
D|-7-x-x-x-x-x-x---5-x-x-x-x-x-x-x---|
A|-5-x-x-x-x-x-x---5-x-x-x-x-x-x-x---|
E|-----------------3-x-x-x-x-x-x-x---|

REFRAIN
e|------------------------------------|
B|------------------------------------|
G|------------------------------------|
D|---4-4-4-5-xx--xx--4-4-4-5--xx-xx---|
A|---4-4-4-5-xx--xx--4-4-4-5--xx-xx---|
E|---2-2-2-3-xx--xx--2-2-2-3--xx-xx---|

CHORUS
e|-----------------------------------------------------------------|
B|-----------------------------------------------------------------|
G|-4-4-4-4-4-4-4--7-7-7-7-7-7-7-7----------------------------------|
D|-4-4-4-4-4-4-4--7-7-7-7-7-7-7-7--7-7-7-7-7-7-7-7--5-5-5-5-5-5-5-5| x2
A|-2-2-2-2-2-2-2--5-5-5-5-5-5-5-5--7-7-7-7-7-7-7-7--5-5-5-5-5-5-5-5|
E|---------------------------------5-5-5-5-5-5-5-5--3-3-3-3-3-3-3-3|

Repeat INTRO

VERSE
e|--------------------------------------------------------------------|
B|--------------------------------------------------------------------|
G|-7-x-x-x-x-x-x---------------------7-x-x-x-x-x-x-x------------------|
D|-7-x-x-x-x-x-x---5-x-x-x-x-x-x-x---7-x-x-x-x-x-x-x---5-x-x-x-x-x-x--|
A|-5-x-x-x-x-x-x---5-x-x-x-x-x-x-x---5-x-x-x-x-x-x-x---5-x-x-x-x-x-x--|
E|-----------------3-x-x-x-x-x-x-x---------------------3-x-x-x-x-x-x--|
Repeat REFRAIN

Repeat CHORUS

e|--------------------------------------------------------------------|
B|--------------------------------------------------------------------|
G|--4-4-4-4-4-4-4--7-7-7-7-7-7-7-7------------------------------------|
D|--4-4-4-4-4-4-4--7-7-7-7-7-7-7-7--7-7-7-7-7-7-7-7--5-5-5-5-5-5-5-5--|
A|--2-2-2-2-2-2-2--5-5-5-5-5-5-5-5--7-7-7-7-7-7-7-7--5-5-5-5-5-5-5-5--|
E|----------------------------------5-5-5-5-5-5-5-5--3-3-3-3-3-3-3-3--|

e|-------------------|
B|-------------------|
G|-------------------|
D|---4-4-4-5-5-5-5---|
A|---4-4-4-5-5-5-5---| 
E|---2-2-2-3-3-3-3---|

SOLO

e-------------------------------------------------------------|
B------------------151515-15/12-1212-12/10-10/7-7b----3-5-8-7-|
G--------------------------------------------------4b---------|
D-------------------------------------------------------------|
A-------------------------------------------------------------|
E-------------------------------------------------------------|

e-9/1010-9/10101010-9/10101010-9/10101010-15-12-9-3-5-7------|
B-9/1010-9/10101010-9/10101010-9/10101010-15-12-9-3-5-7------|
G------------------------------------------------------------|
D------------------------------------------------------------|
A------------------------------------------------------------|
E------------------------------------------------------------|



e|---5-4-5---5-4-5---5-4-5-7-5-4-5-----|--5----|
B|---------5-------5---------------5---|--5----|
G|-------------------------------------|
D|-------------------------------------|
A|-------------------------------------| 
E|-------------------------------------|

Repeat CHORUS x2

e|--------------------------------------------------------------------|
B|--------------------------------------------------------------------|
G|--4-4-4-4-4-4-4--7-7-7-7-7-7-7-7------------------------------------|
D|--4-4-4-4-4-4-4--7-7-7-7-7-7-7-7--7-7-7-7-7-7-7-7--5-5-5-5-5-5-5-5--|
A|--2-2-2-2-2-2-2--5-5-5-5-5-5-5-5--7-7-7-7-7-7-7-7--5-5-5-5-5-5-5-5--|
E|----------------------------------5-5-5-5-5-5-5-5--3-3-3-3-3-3-3-3--|

Repeat INTRO

OUTRO
e|--------------------------------------------------------------------|
B|--------------------------------------------------------------------|
G|--------------------------------------------------------------------|
D|--4---4-4-4---4-5-5--5-5-5------------------------------------------|
A|--4---4-4-4---4-5-5--5-5-5------------------------------------------|
E|--2---2-2-2---2-3-3--3-3-3------------------------------------------|
Suggest correction
Give kudos to tab author, rate the tab!
1 2 3 4 5
comments
print report bad tab
guest
You may want to rate the tab now too:
select rating
Wanna post a correction for this tab? Suggest correction