Oops, an error
Loading. Please wait.

Rolling Star Tab

version 5
version 5

Interactive

by YUI
8,799 views 1 this week
no commentswrite comment
1 2 3 4 5
please rate
add to favorites
launch autoscroll
font size
0
reset
how to read this tab
guitar tuner
Tab Pro tools
  • play this tab
  • loop segment
  • change instrument
  • show fretboard
  • metronome
×
Best way to learn
"Rolling Star"
Autoscroll
slow
fast
+/-
esc
set tempo
stop
Contributor
ROLLING STAR
By YUI

Tabbed by David Hung
Email me at mini100man@gmail.com

There's some distortion in this song
And also, the song may be in 3/4, so... try your best @ timing


==================================================================================================
CHORUS

Guitar 1

e|-------0---0-------0----0------0---0-------0---0---|
B|-----3---3-------3---3-------2---2-------3---3-----|
G|---4-----------2-----------2-----------0-----------|
D|---------------------------------------------------|  x2
A|---------------------------------------------------|
E|---------------------------------------------------|

Guitar 2                                               After the 2nd time, cont. immediately
e|------------------------------------------------|    e|---------------|
B|------------------------------------------------|    B|---------------|
G|---4-xxxx-4---7-xxxx-7--------------------------|    G|---------------|
D|---4-xxxx-4---7-xxxx-7---7-xxxx-7---5-x-5-x-5---| x2 D|---5-x-5-x-5---|
A|---2-xxxx-2---5-xxxx-5---7-xxxx-7---5-x-5-x-5---|    A|---5-x-5-x-5---|
E|-------------------------5-xxxx-5---3-x-3-x-5---|    E|---3-x-3-x-3---|

Guitar 1  (Let ring w/ dist.)
e|-----------|
B|-----------|
G|-------7---|
D|---7-------|
A|-----5-----|
E|-----------|
=================================================================================================
(
Guitar 2, all this time for a couple measures just does palm muting on the last chords played)


Guitar 2 (After guitar 1 plays that last bit)
e|------------------------------------|
B|------------------------------------|
G|------------------------------------|
D|---4-4-4-5-xx--xx--4-4-4-5--xx-xx---|
A|---4-4-4-5-xx--xx--4-4-4-5--xx-xx---|
E|---2-2-2-3-xx--xx--2-2-2-3--xx-xx---|


Guitar 1 (while playing the last 2 palm muted chords, start playing)

e|---------------------|
B|---------------------|
G|---7-6---7-6---7-6---|
D|-------7-----7-------| x4
A|---------------------|
E|---------------------|

Guitar 1 repeats back to top around 2 times

Guitar 2 repeats back to top around 2 times

Then, there are the crazy effects which I'm too dumb to tab...

Guitar 2

e|-------------------|
B|-------------------|
G|-------------------|
D|---4-4-4-5-5-5-5---|
A|---4-4-4-5-5-5-5---| repeat till that next part is over
E|---2-2-2-3-3-3-3---|

========================================================================
SOLO


Guitar 1 (Some more crazy effects, and then)

e|------------------------------------------------------------3-2---|
B|----------------------------------------------------------2-------|
G|---7-7-7-7-4-4-4-4----------------------3h4p3h4p3h4p3h4-3---------|
D|-------------------4-4-4-4h5p4h5p4h54h5---------------------------|
A|------------------------------------------------------------------|
E|------------------------------------------------------------------|

Guitar 1

e|-------------------------------------|
B|-------------------------------------|
G|-------------------------------------|
D|---5-4-5---5-4-5---5-4-5-7-5-4-5-----| x3
A|---------5-------5---------------5---|
E|-------------------------------------|

========================================================================

Guitar 1 (while playing the last 2 palm muted chords, start playing)

Guitar 1 again

e|---------------------|
B|---------------------|
G|---7-6---7-6---7-6---|
D|-------7-----7-------| x4
A|---------------------|
E|---------------------|

Go to beginning of song again
=========================================================================

This is my Favorite Japanese song, and although I don't know what it means, it's still a
song
There are probably some mistakes, as this is THE first time I've tabbed a full song, and so..
If u have any suggestions, please email me at mini100man@gmail.com

Thanks for reading!
comments
We did not receive enough feedback on this tab! Please rate:
print report bad tab
1 2 3 4 5
I want to post or [tab]
guest
You may want to rate the tab now too:
select rating
Please do not post tabs as comments. Select "correction" instead!