Oops, an error
Loading. Please wait.

Sweet Planet Bass Tab

16 views 1 this week
no commentswrite comment
1 2 3 4 5
3 more votes to show rating
add to favorites
launch autoscroll
font size
0
reset
guitar tuner
Autoscroll
slow
fast
+/-
esc
set tempo
stop
Help us to improve Ultimate-Guitar.com Take our survey!
×
Author
Difficulty
Tuning
novice
D# G# C# F# A# D#
Song : https://www.youtube.com/watch?v=OyWG-uytTfE


Tuning : 

G
D
A
Eb (D#)


[Intro]

|----------------|----------------|----------------|----------------| (x2)
|----------------|----------------|----------------|----------------|
|----------------|--------r-------|----------------|--------r-------|
|--3-------------|----------------|--5-------------|----------------|


|----------------|----------------|----------------|----------------|
|--/4------------|----------------|----------------|----------------|
|----------------|--------r-------|--------r-------|----------------|
|----------------|----------------|----------------|-----------14-\-|


|---------------|---------------|---------------|----------------| 
|---------------|---------------|---------------|----------------|
|---------------|---------------|---------------|--------r-------|
|-3-------------|----------12-\-|-5-------------|----------------|


[Verse]

|-------------------|-------------------|-------------------|-------------------|
|-------------------|-------------------|-------------------|-------------------|
|-------------------|-------------------|-------------------|-------------------|
|--7-7-7-7-5-5-5-5--|--3-3-3-3-3-3-3-3--|--5-5-5-5-3-3-3-3--|--2-2-2-2-2-2-2-2--|


|-------------------|-------------------|-------------------|-----------------|
|-------------------|-------------------|-------------------|-------------6\--|
|--1-1-1-1-3-3-3-3--|--4-4-4-4-1-1-1-1--|-------------------|-----------------|
|-------------------|-------------------|--0-0-0-0-2-2-2-2--|--3-3-3-3-5------|


|-------------------|-------------------|-------------------|-------------------|
|-------------------|-------------------|-------------------|-------------------|
|--1-1-1-1----------|-------------------|-------------------|-------------------|
|----------5-5-5-5--|--3-3-3-3-3-3-3-3--|--5-5-5-5-3-3-3-3--|--2-2-2-2-2-2-2-2--|


|-------------------|-------------------|-------------------|----------------|
|-------------------|-------------------|-------------------|----------------|
|--1-1-1-1-3-3-3-3--|--4-4-4-4-1-1-1-1--|-------------------|----------------|
|-------------------|-------------------|--0-0-0-0-2-2-2-2--|--3-3-3-3-5-5-5-|


[Verse]

|--------------------|-------------------|-------------------|-------------------|
|--------------------|-------------------|-------------------|-------------------|
|-0-0-0-0-0-0-0-0-0--|--0-0-0-0-0-0-0-0--|-------------------|-------------------|
|--------------------|-------------------|--5-5-5-5-5-5-5-5--|--5-5-5-5-5-5-5-5--|


|-------------------|-------------------|-------------------|----------------|
|-------------------|-------------------|-------------------|----------------|
|-------------------|-------------------|-------------------|----------------|
|--3-3-3-3-3-3-3-3--|--3-3-3-3-3-3-3-3--|--5-5-5-5-5-5-5-5--|--6-6-6-6-8-8-8-|


|--------------------|-------------------|-------------------|-------------------|
|--------------------|-------------------|-------------------|-------------------|
|-0-0-0-0-0-0-0-0-0--|--0-0-0-0-0-0-0-0--|-------------------|-------------------|
|--------------------|-------------------|--5-5-5-5-5-5-5-5--|--5-5-5-5-5-5-5-5--|


|-------------------|-------------------|-------------------|-----------------|
|-------------------|-------------------|-------------------|-----------------|
|-------------------|-------------------|-------------------|-----------------|
|--3-3-3-3-3-3-3-3--|--3-3-3-3-3-3-3-3--|--5-5-5-5-5-5-5-5--|--5-5-5-5-5-5-6--|


[Verse]

|-------------------|-------------------|-------------------|-------------------|
|-------------------|-------------------|-------------------|-------------------|
|-------------------|-------------------|-------------------|-------------------|
|--7-7-7-7-5-5-5-5--|--3-3-3-3-3-3-3-3--|--5-5-5-5-3-3-3-3--|--2-2-2-2-2-2-2-2--|


|-------------------|-------------------|-------------------|----------1--1-|
|-------------------|-------------------|--1-1-1-1-3-3-3-3--|--4-4-4-4------|
|--1-1-1-1-3-3-3-3--|--4-4-4-4-1-1-1-1--|-------------------|---------------|
|-------------------|-------------------|-------------------|---------------|


[Interlude]

|----------------|----------------|----------------|----------------| 
|----------------|----------------|----------------|----------------|
|----------------|--------r-------|----------------|--------r-------|
|--3-------------|----------------|--5-------------|----------------|


|----------------|----------------|----------------|--------------|
|--4-------------|----------------|--/6------------|--------------|
|----------------|--------r-------|----------------|--------------|
|----------------|----------------|----------------|----------7-\-|


|---------------|----------------|----------------|----------------| 
|---------------|----------------|----------------|------------4h6-|
|---------------|--------r-------|----------------|--------4h6-----|
|-3-------------|----------------|--5-------------|----------------|


|----------------|----------------|----------------|---------------|
|-4--------------|----------------|----------------|---------------|
|----------------|--------r-------|----------------|-----------11\-|
|----------------|----------------|--5-------------|---------------|


[Verse]

|-------------------|-------------------|-------------------|-------------------|
|-------------------|-------------------|-------------------|-------------------|
|-------------------|-------------------|-------------------|-------------------|
|--7-7-7-7-5-5-5-5--|--3-3-3-3-3-3-3-3--|--5-5-5-5-3-3-3-3--|--2-2-2-2-2-2-2-2--|


|-------------------|-------------------|-------------------|----------------|
|-------------------|-------------------|-------------------|----------------|
|--1-1-1-1-3-3-3-3--|--4-4-4-4-1-1-1-1--|-------------------|----------------|
|-------------------|-------------------|--0-0-0-0-2-2-2-2--|--3-3-3-3-5-5-5-|


[Verse]

|--------------------|-------------------|-------------------|-------------------|
|--------------------|-------------------|-------------------|-------------------|
|-0-0-0-0-0-0-0-0-0--|--0-0-0-0-0-0-0-0--|-------------------|-------------------|
|--------------------|-------------------|--5-5-5-5-5-5-5-5--|--5-5-5-5-5-5-5-5--|


|-------------------|-------------------|-------------------|----------------|
|-------------------|-------------------|-------------------|----------------|
|-------------------|-------------------|-------------------|----------------|
|--3-3-3-3-3-3-3-3--|--3-3-3-3-3-3-3-3--|--5-5-5-5-5-5-5-5--|--6-6-6-6-8-8-8-|


|--------------------|-------------------|-------------------|-------------------|
|--------------------|-------------------|-------------------|-------------------|
|-0-0-0-0-0-0-0-0-0--|--0-0-0-0-0-0-0-0--|-------------------|-------------------|
|--------------------|-------------------|--5-5-5-5-5-5-5-5--|--5-5-5-5-5-5-5-5--|


|-------------------|-------------------|-------------------|-----------------|
|-------------------|-------------------|-------------------|-----------------|
|-------------------|-------------------|-------------------|-----------------|
|--3-3-3-3-3-3-3-3--|--3-3-3-3-3-3-3-3--|--5-5-5-5-5-5-5-5--|--5-5-5-5-5-5-6--|


[Verse]

|-------------------|-------------------|-------------------|-------------------|
|-------------------|-------------------|-------------------|-------------------|
|-------------------|-------------------|-------------------|-------------------|
|--7-7-7-7-5-5-5-5--|--3-3-3-3-3-3-3-3--|--5-5-5-5-3-3-3-3--|--2-2-2-2-2-2-2-2--|


|-------------------|-------------------|-------------------|------------------|
|-------------------|-------------------|-------------------|--------------6\--|
|--1-1-1-1-3-3-3-3--|--4-4-4-4-1-1-1-1--|-------------------|------------------|
|-------------------|-------------------|--0-0-0-0-2-2-2-2--|--3-3-3-3-5-5-----|


|-----------------------|-----------------------------|
|----1-1-3-3---1-1-3-3--|----1-1-3-3---1-1-3-3--------|
|-----------------------|-------------------------11\-|
|-----------------------|-----------------------------|


|-----------------------|-----------------------|
|-----------------------|-----------------------|
|-----------------------|-----------------------|
|----0-0-2-2---0-0-2-2--|----0-0-2-2---0-0-2-2--|


[Outro]

|----------------|----------------|----------------|----------------| 
|----------------|----------------|----------------|----------------|
|----------------|--------r-------|----------------|--------r-------|
|--3-------------|----------------|--5-------------|----------------|


|----------------|----------------|----------------|---------------|
|--/4------------|----------------|--/6------------|---------------|
|----------------|--------r-------|----------------|---------8-\---|
|----------------|----------------|----------------|-------------5-|


|---------------|----------------|----------------|----------------| 
|---------------|----------------|----------------|----------------|
|---------------|--------r-------|----------------|-------------4/-|
|-3-------------|----------------|--5-------------|----------------|

                                                                        (fade out)
|---------------|----------------|----------------|----------------|--------------|
|---------------|----------------|-6h8-6----------|----------------|--------------|
|-9-------------|--------r-------|----------------|--------r-------|--------------|
|---------------|----------------|----------------|----------------|--3-----------|



****************************

| / : slide up
| \ : slide down
| h : hammer-on
| r : rest

****************************

in regular sequence! 
Suggest correction
Give kudos to tab author, rate the tab!
1 2 3 4 5
comments
print report bad tab
guest
You may want to rate the tab now too:
select rating
Wanna post a correction for this tab? Suggest correction