Oops, an error
Loading. Please wait.

Hikoukigumo Bass Tab

16 views 1 this week
no commentswrite comment
1 2 3 4 5
3 more votes to show rating
add to favorites
launch autoscroll
font size
0
reset
guitar tuner
Autoscroll
slow
fast
+/-
esc
set tempo
stop
Help us to improve Ultimate-Guitar.com Take our survey!
×
Author
Difficulty
intermediate
About this tab version
I could not find any bass tabs for this beautiful song as there is only chords for what the singer sings and not what the bass plays. Was this info helpful? Yes No
Bass tabs
Hikoukigumo-Yumi Matsutoya

[Intro](piano intro)
0:00-0:12

Break for the bass


[Verse] Shiroi sakamichi...
0:12-0:56

G|--------------------0----0--0----0--1----1--0----0-------------------------|  
D|----1----1--1----1----------------------------------3----3--3--5----3------|
A|-----------------------------------------------------------------------3---|
E|---------------------------------------------------------------------------|

G|--------1----1--0----0--0----0--1---1--1----1--3----3--3-------------------|
D|---------------------------------------------------------------------------|
A|1----1---------------------------------------------------------------------|
E|---------------------------------------------------------------------------|   x2


[Chorus] Sora ni...
0:56-1:19

G|------------------3-4-5--5----3-4-5--5----5-5----0----0--3--3----3-2-1----1|
D|1--1---3--5--5-------------------------------------------------------------|
A|---------------------------------------------------------------------------|
E|---------------------------------------------------------------------------|

G|1-1----1--0----0-0-0--0----0--1----1-1-1--1----1--3----3-3-3--3----3-------|
D|---------------------------------------------------------------------------|
A|---------------------------------------------------------------------------|
E|---------------------------------------------------------------------------|

[Verse 2] takai ano...
1:19-2:04

G|--------------------0----0--0----0--1----1--0----0-------------------------|  
D|----1----1--1----1----------------------------------3----3--3--5----3------|
A|-----------------------------------------------------------------------3---|
E|---------------------------------------------------------------------------|

G|--------1----1--0----0--0----0--1---1--1----1--3----3--3-------------------|
D|---------------------------------------------------------------------------|
A|1----1---------------------------------------------------------------------|
E|---------------------------------------------------------------------------|   x2

[Chorus] Sora ni...
2:04-2:25

G|------------------3-4-5--5----3-4-5--5----5-5----0----0--3--3----3-2-1----1|
D|1--1---3--5--5-------------------------------------------------------------|
A|---------------------------------------------------------------------------|
E|---------------------------------------------------------------------------|

G|1-1----1--0----0-0-0--0----0--1----1-1-1--1----1--3----3-3-3--3----3-------|
D|---------------------------------------------------------------------------|
A|---------------------------------------------------------------------------|
E|---------------------------------------------------------------------------|

[Chorus 2] Sora ni...
2:25-1:19

G|------------------3-4-5--5----3-4-5--5----5-5----0----0--8----5-3-0--------|
D|1--1---3--5--5------------------------------------------------------1~------|
A|---------------------------------------------------------------------------|
E|---------------------------------------------------------------------------|

G|-------0----0-0-0--0----0--1----1-1-1--1----1--3----3-3-3--3----3----------|
D|---------------------------------------------------------------------------|
A|---------------------------------------------------------------------------|
E|---------------------------------------------------------------------------|

[Outro]

Solo will be writte down soon if verified :D
G|---------------------------------------------------------------------------|
D|---------------------------------------------------------------------------|
A|---------------------------------------------------------------------------|
E|---------------------------------------------------------------------------|

G|---------------------------------------------------------------------------|
D|---------------------------------------------------------------------------|
A|---------------------------------------------------------------------------|
E|---------------------------------------------------------------------------|


************************************

| /   Slide up
| \   Slide down
| ~   Vibrato


************************************
Suggest correction
Give kudos to tab author, rate the tab!
1 2 3 4 5
comments
print report bad tab
guest
You may want to rate the tab now too:
select rating
Wanna post a correction for this tab? Suggest correction