Oops, an error
Loading. Please wait.

Ojos De Sol tab

26 views 1 this week
no commentswrite comment
1 2 3 4 5
3 more votes to show rating
add to favorites
×
Save as Personal and add changes to this tab that will be seen only by you. Learn more ›
×
You can save this tab as Personal to edit and correct it or add notes. All changes will be seen only by you. Learn more »
launch autoscroll
font size
0
reset
how to read this tab
guitar tuner
edit
Autoscroll
slow
fast
+/-
esc
set tempo
stop
UN SALUDO DESDE LA PUERTA DE ENTRADA AL MUNDO MAYA
CAMPECHE, MEXICO

ESTE TAB FUE ELABORADO POR PERRRUZZY
SE LO DEDICO A MI COMPADRE-PAISANO:

JUAN CARLOS REYES - escárcega
PORQUE EL ME PASO EL AUDIO PARA SACARLO.

Posiciones de los acordes usados en la introducción:

  Am7  D  Bm7  E  E7
e--3---2---2---0---0---
B--1---3---3---0---3---
G--0---2---2---1---1---
D--2---0---4---2---2---
A--0---X---2---2---2---
E--X---X---2---0---0---

[INTRO:] estos arpegios se hacen sobre
         las posiciones del diagrama anterior.

   Am7                                   D
e---3------0-2-3-2-0-3-------0-2-2h3p2-0-2---2---2-----0---
B-------1-----------------1--------------------------3-----
G-----0-----------------0-------------------2--2---2-------
D----------------------------------------0~~---------------
A---0------0~~~~-----0-------0~~~~-------------------------
E----------------------------------------------------------

   Bm7                E  E7
e------------------2-----0------------
B--3----3----3-----------3---0--------
G--2----2----2-----2--1---------------
D----4----4----4------2---------------
A--2----2----2-----2------------2-0---
E---------------------0---------------

Entra el siguiente punteo nylon:

   Am7                           D
e--10s12~~~--10h12-10--10h12-10--10-10-8-10--8h10p8--7-8-7h8p7------
B--------------------------------------------------------------10---
G-------------------------------------------------------------------

           Bm7                  E
e--7-8-9-10-7------------------------
B-------------10-9-7-9---9h10-9-9----
G------------------------------------


                         Am7
e----------7-8-10s12-10-8-7h8p7----7---------
B------9-10---------------------10---10-10---
G--9h10--------------------------------------

            D                           Bm7
e----------------------------------------7-10-9-8-7---------
B-----------------------------------7-10------------10-10---
G-------7-9-9bb-7-9b-7-7--------7-9-------------------------
D---7h9---------------------7h9-----------------------------

      E
e---7-4-4----------12~~----
B--------------------------
G--------------------------


[ESTROFA 1:]

     Am7                   D
Y te veo tan bonita esta mañana
          Bm7                              E
¿Qué te hiciste en el cabello? Te ves muy bien
         Am7                      D
Me hacen falta tu mirada y tus palabras
        Bm7                       E
Y esas tardes antes de, el anochecer.

[CORO:]

     Am7                    D9
Y sentirte respirar y de tu mano caminar
      Bm7        E         E7
Una mañana que pueda despertar
        Am7       D
en tu mirada, de tus ojos de sol
          Bm7         E
Que me desgarran, la piel y el corazón.

[ESTROFA 2:]

       Am7                       D
Y te extraña mi guitarra y estas manos
        Bm7                             E
Son las tres de la mañana y no puedo dormir
Am7                D               Bm7
Ven que aquí esperaré que salga el alba
    E            E7
En medio de tu piel.

[CORO:]

      Am7                   D
Y sentirte respirar y de tu mano caminar
      Bm7       E
Una mañana que pueda despertar
        Am7      D           D9
En tu mirada de tus ojos de sol
          Bm7        E             E7
Que me desgarran la piel y el corazón

[SOLO:] es un punteo en las escalas

       Am7 - D - Bm7 - E

       Am7 - D - Bm7 - E


      Am7                D               Bm7
Oh oh Ven que aquí esperaré que salga el alba
    E
En medio de tu piel.

[CORO:]

      Am7                   D
Y sentirte respirar y de tu mano caminar
      Bm7       E
Una mañana que pueda despertar
        Am7      D           D9
En tu mirada de tus ojos de sol
          Bm7        E             E7
Que me desgarran la piel y el corazón

[SALIDA:]

       Am7
Sé que pronto volverás cuando
  D
vuelva a despertar...
      C  - C/B - Am7 - D - G
Una mañana

FIN
Suggest correction
Creating personal tab
Creating personal tab
You can edit any tab online and save it as your Personal.

You can edit, replace or remove any tab part or add personal notes – all changes will be seen only by you.

Personal tabs can be accessed anytime from any device, even offline.
Learn more »
Give kudos to tab author, rate the tab!
1 2 3 4 5
comments
print report bad tab
guest
Wanna post a correction for this tab? Suggest correction