Oops, an error
Loading. Please wait.

Babalik Rin tab

673 views 1 this week
no commentswrite comment
1 2 3 4 5
x 3
add to favorites
×
Save as Personal and add changes to this tab that will be seen only by you. Learn more ›
×
You can save this tab as Personal to edit and correct it or add notes. All changes will be seen only by you. Learn more »
launch autoscroll
font size
0
reset
how to read this tab
guitar tuner
edit
Autoscroll
slow
fast
+/-
esc
set tempo
stop
Author
Difficulty
 1st Tab poh e2!!!!!
 sana magus2han nio!!!

 Artist:Yvan Lambatan
 Title: Babalik rin


intro: A-Bm-C#m-Dm...2x

     A         Bm          C#m          Dm
e|---------|-----------|-----------|-----------5---------------|
B|---2--2--|-----3--3--|-----5--5--|-----6--6--6---------------|
G|---2--2--|-----4--4--|-----6--6--|-----7--7--7---------------|
D|---------|-----------|-----------|-----------7---------------|
A|-0----0--|-0-2----2--|-0-4----4--|-0-5----5------------------|
E|---------|-----------|-----------|---------------------------|


     A         Bm          C#m          Dm
e|---------|-----------|-----------|-----------|-5-----------|
B|---2--2--|-----3--3--|-----5--5--|-----6--6--|---6---------|
G|---2--2--|-----4--4--|-----6--6--|-----7--7--|-----7-------|
D|---------|-----------|-----------|-----------|-------7-----|
A|-0----0--|-0-2----2--|-0-4----4--|-0-5----5--|---------5---|
E|---------|-----------|-----------|-----------|-------------|

verse1

     A          Bm               C#m            D#m
e|------------|--------------|--------------|----------------|
B|---2--2--2--|-----3--3--3--|-----5--5--5--|------6--6--6---|
G|---2--2--2--|-----4--4--4--|-----6--6--6--|------7--7--7---|
D|------------|--------------|--------------|----------------|
A|-0----0-----|-0-2----2-----|-0-4----4-----|-0-5-----5------|
E|------------|--------------|--------------|----------------|

    A          Bm               C#m            D#m
e|------------|--------------|--------------|----------------|-5----------|
B|---2--2--2--|-----3--3--3--|-----5--5--5--|------6--6--6---|---6--------|
G|---2--2--2--|-----4--4--4--|-----6--6--6--|------7--7--7---|-----7------|
D|------------|--------------|--------------|----------------|-------7----|
A|-0----0-----|-0-2----2-----|-0-4----4-----|-0-5-----5------|------------|
E|------------|--------------|--------------|----------------|------------|


A            Bm       C#m       Dm
O kay sarap balikan, mga alala na iyong iniwan
A         Bm          C#m            Dm
Tamis ng iyong halik sa pagtulog ko'y tanging panaginip
A        Bm   C#m                  Dm
Nakakabaliw, hinahanap ang yakap ng yong pag-ibig
A        Bm       C#m            Dm
Nakakaaliw, o kay sarap isipin babalik rin e|-5------------|
                                           b|---6----------|
                                           g|-----7--------|
                                           d|-------7------|
                                           a|---------5----|

[chorus]
    A              Bm                 C#m         Dm
e|---0--0------|-----2--2----------|-----4--4-|-----5--5----|
B|---2--2--2---|-----3--3--3-------|-----5--5-|-----6--6----|
G|---2-------2-|-----4--4----4-----|-----6--6-|-----7--7----|
D|-------------|---------------4---|----------|-------------|
A|-0-----------|-0-2-------------2-|-0-4------|-0-5---------|
E|-------------|-------------------|----------|-------------|

   A              Bm                 C#m         Dm
e|---0--0------|-----2--2----------|-----4--4-|-----5--5----|-5---------|
B|---2--2--2---|-----3--3--3-------|-----5--5-|-----6--6----|---6-------|
G|---2-------2-|-----4--4----4-----|-----6--6-|-----7--7----|-----7-----|
D|-------------|---------------4---|----------|-------------|-------7---|
A|-0-----------|-0-2-------------2-|-0-4------|-0-5---------|---------5-|
E|-------------|-------------------|----------|-------------|-----------|

A
Heto ba
      Bm
Dito na ba
       C#m                Dm
Sa paraisong pag-ibig mo ang maylikha
A
Ikaw ba
      Bm
Sana ikaw na
        C#m              Dm
Pinapangarap ng pusong sumisinta e|-5------------|
                                 B|---6----------|
                                 G|-----7--------|
                                 D|-------7------|
                                 A|---------5----|

[interlude]
    A         Bm          C#m          Dm
e|---------|-----------|-----------|-----------5---------------|
B|---2--2--|-----3--3--|-----5--5--|-----6--6--6---------------|
G|---2--2--|-----4--4--|-----6--6--|-----7--7--7---------------|
D|---------|-----------|-----------|-----------7---------------|
A|-0----0--|-0-2----2--|-0-4----4--|-0-5----5------------------|
E|---------|-----------|-----------|---------------------------|


     A         Bm          C#m          Dm
e|---------|-----------|-----------|-----------|-5-----------|
B|---2--2--|-----3--3--|-----5--5--|-----6--6--|---6---------|
G|---2--2--|-----4--4--|-----6--6--|-----7--7--|-----7-------|
D|---------|-----------|-----------|-----------|-------7-----|
A|-0----0--|-0-2----2--|-0-4----4--|-0-5----5--|---------5---|
E|---------|-----------|-----------|-----------|-------------|


verse2[same as verse1]
A        Bm            C#m                  Dm
O kay sarap pagmasdan liwanag ng buwan ay ikaw ang kapiling
A            Bm               C#m             Dm
Sa lamig ng simoy ng hangin, ang yakap mo at halik ang dalangin
A         Bm           C#m                    Dm
Laging hinahanap ang lambing ng pag-ibig na inalay sa akin
A            Bm       C#m              Dm
Tangi kong pangarap sana muli kong madama ang pag-ibig

[chorus2 same as chorus1]
A
Heto ba
      Bm
Dito na ba
         C#m               Dm
Ang paraisong pag-ibig mo ang maylikha
A
Ikaw ba
      Bm
Sana ikaw na
     C#m              Dm
Hinahanap ng pusong nagiisa
A
Ikaw ba
       Bm
Sana ikaw na
      C#m               Dm
Hinahanap ng pusong nag-iisa e|----------5------------|
                             B|--------6--------------|
                             G|------7----------------|
                             D|----7------------------|
                             A|--5--------------------|


                               [end]


ThiS SonG is Dedicated to mY "FuTuRe wiFE" AnnE Cortez Y FetizA heKhEk 
muwaaaaaaaaaaaaaaaaaaaaH
sana kAw nA ngA..... ^_^

mokotostring_6000@yahoo

            
            
Suggest correction
Creating personal tab
Creating personal tab
You can edit any tab online and save it as your Personal.

You can edit, replace or remove any tab part or add personal notes – all changes will be seen only by you.

Personal tabs can be accessed anytime from any device, even offline.
Learn more »
Give kudos to tab author, rate the tab!
1 2 3 4 5
comments
print report bad tab
guest
You may want to rate the tab now too:
select rating
Wanna post a correction for this tab? Suggest correction