Oops, an error
Loading. Please wait.

Adventure Spirit tab

5,902 views 93 this week
1 commentread comment
1 2 3 4 5
x 8
add to favorites
×
Save as Personal and add changes to this tab that will be seen only by you. Learn more ›
×
You can save this tab as Personal to edit and correct it or add notes. All changes will be seen only by you. Learn more »
launch autoscroll
font size
0
reset
how to read this tab
guitar tuner
edit
Autoscroll
slow
fast
+/-
esc
set tempo
stop
Tuning: F A C G C E
Capo: 1st fret
Original video: https://www.youtube.com/watch?v=zyrOgFfbACA 

[Part 1]

(0:00)
E|-----3p0-------------------------------3p0---------------------------|
C|---------2-----4---------0-----------------2-----4---------0---------|
G|---0-------0-------0h2h4---4p2p0-----0-------0-------0h2h4---4p2p0---|
C|-------------0-------------------0-------------0-------------------0-|
A|---------------------------------------------------------------------|
F|-0---------------------------------0---------------------------------|

(0:05)
E|---------------------------------------------------------------------|
C|-----5p0-----------------0-------------5p0-----------------0---------|
G|---------5-----6---0h2h4---4p2p0-----------5-----6---0h2h4---4p2p0---|
C|---0-------0---------------------0---0-------0---------------------0-|
A|-0-----------0---------------------0-----------0---------------------|
F|---------------------------------------------------------------------|

(0:11)
E|-----3p0-------------------------------3p0---------------------------|
C|---------2-----4---------0-----------------2-----4---------0---------|
G|---0-------0-------0h2h4---4p2p0-----0-------0-------0h2h4---4p2p0---|
C|-------------0-------------------0-------------0-------------------0-|
A|---------------------------------------------------------------------|
F|-0---------------------------------0---------------------------------|

(0:16)
E|---------------------------------------------------------------------|
C|-----5p0-----------------0-------------5p0-----------------0---------|
G|---------5-----6---0h2h4---4p2p0-----------5-----6---0h2h4---4p2p0---|
C|---0-------0---------------------0---0-------0---------------------0-|
A|-0-----------0---------------------0-----------0---------------------|
F|---------------------------------------------------------------------|


[Part 2]

(0:22)
E|-8-----8-----8---7-------12---------------------------------------|
C|---0-----0-----0---0--------0-----9-----9-----9---7-----7-----7---|
G|-----0-----0---------0--------0-----0-----0-----0---0-----0-----0-|
C|--------------------------------------0-----0---------0-----0-----|
A|----------------------------------0---------------0---------------|
F|-0---------------0------------------------------------------------|


[Part 3]

(0:27)
E|-----------------0h1h3-1-p0---------------------0h1h3-1-p0-----|
C|---------0------------------0-----------0------------------0---|
G|---------0-----0--------------0---------0-----0--------------0-|
C|-----0---0--------------------------0---0----------------------|
A|-------0------------------------------0------------------------|
F|-0------------------------------0------------------------------|

(0:33)
E|-----------------0h1h3-1-p0---------------------0h1h3-1-p0-----|
C|---------0------------------0-----------0------------------0---|
G|---------0-----0--------------0---------0-----0--------------0-|
C|-----0---0--------------------------0---0----------------------|
A|-------0------------------------------0------------------------|
F|-0------------------------------0------------------------------|


[Part 4]

(0:39)
E|---------0-----0---------0-----0---------0-----0---------0-----0-|
C|-------0-----0---------0-----0---------0-----0---------0-----0---|
G|-----0-----4---------0-----4---------0-----4---------0-----4-----|
C|---4---------------4---------------4---------------4-------------|
A|-----------------------------------------------------------------|
F|-4---------------4---------------4---------------4---------------|

(0:44)
E|-----------------------------------------------------------------|
C|-------0h2-----2-------0h2-----2-------0h2-----2-------0h2-----0-|
G|-----0-------0-------0-------0-------0-------0-------0-------0---|
C|---0-------0-------0-------0-------0-------0-------0-------0-----|
A|-----------------------------------------------------------------|
F|-0---------------0---------------0---------------0---------------|

(0:50)
E|---------0-----0---------0-----0---------0-----0---------0-----0-|
C|-------0-----0---------0-----0---------0-----0---------0-----0---|
G|-----0-----4---------0-----4---------0-----4---------0-----4-----|
C|---4---------------4---------------4---------------4-------------|
A|-----------------------------------------------------------------|
F|-4---------------4---------------4---------------4---------------|

(0:55)
E|-----------------------------------------------------------------|
C|-------0h2-----2-------0h2-----2-------0h2-----2-------0h2-----0-|
G|-----0-------0-------0-------0-------0-------0-------0-------0---|
C|---0-------0-------0-------0-------0-------0-------0-------0-----|
A|-----------------------------------------------------------------|
F|-0---------------0---------------0---------------0---------------|

(1:01)
E|---------0-----0---------0-----0---------0-----0---------0-----0-|
C|-------0-----0---------0-----0---------0-----0---------0-----0---|
G|-----0-----4---------0-----4---------0-----4---------0-----4-----|
C|---4---------------4---------------4---------------4-------------|
A|-----------------------------------------------------------------|
F|-4---------------4---------------4---------------4---------------|

(1:06)
E|-----------------------------------------------------------------|
C|-------0h2-----2-------0h2-----2-------0h2-----2-------0h2-----0-|
G|-----0-------0-------0-------0-------0-------0-------0-------0---|
C|---0-------0-------0-------0-------0-------0-------0-------0-----|
A|-----------------------------------------------------------------|
F|-0---------------0---------------0---------------0---------------|

(1:11)
E|---------0-----0---------0-----0---------0-----0---------0-----0-|
C|-------0-----0---------0-----0---------0-----0---------0-----0---|
G|-----0-----4---------0-----4---------0-----4---------0-----4-----|
C|---4---------------4---------------4---------------4-------------|
A|-----------------------------------------------------------------|
F|-4---------------4---------------4---------------4---------------|

(1:17)
E|-----------------------------------------------------------------|
C|-------0h2-----2-------0h2-----2-------0h2-----2-------0h2-----0-|
G|-----0-------0-------0-------0-------0-------0-------0-------0---|
C|---0-------0-------0-------0-------0-------0-------0-------0-----|
A|-----------------------------------------------------------------|
F|-0---------------0---------------0---------------0---------------|


[Part 5]

(1:22)
E|----------------12N.H.-----------------0----------------0-----3-------|
C|-------0---------------------------0-----------0-------------0--0-2/4-|
G|-----0---h4/5p0----------12/14p0-7---7-------0---h4/5p0-----0---------|
C|---0-----h4/5p0----------------------------0-----h4/5p0----0----------|
A|------------------------------------------------------------------2/3-|
F|-0---------------------0---------7p0-----0----------------4-----------|

(1:27)
E|----------------12N.H.-----------------0----------------0-----3-------|
C|-------0---------------------------0-----------0-------------0--0-2/4-|
G|-----0---h4/5p0----------12/14p0-7---7-------0---h4/5p0-----0---------|
C|---0-----h4/5p0----------------------------0-----h4/5p0----0----------|
A|------------------------------------------------------------------2/3-|
F|-0---------------------0---------7p0-----0----------------4-----------|

(1:33)
E|----------------12N.H.-----------------0----------------0-----3-------|
C|-------0---------------------------0-----------0-------------0--0-2/4-|
G|-----0---h4/5p0----------12/14p0-7---7-------0---h4/5p0-----0---------|
C|---0-----h4/5p0----------------------------0-----h4/5p0----0----------|
A|------------------------------------------------------------------2/3-|
F|-0---------------------0---------7p0-----0----------------4-----------|

(1:38)
E|----------------12N.H.-----------------0----------------0-----3-----------|
C|-------0---------------------------0-----------0-------------0--0-4p2p0---|
G|-----0---h4/5p0----------12/14p0-7---7-------0---h4/5p0-----0-----------0-|
C|---0-----h4/5p0----------------------------0-----h4/5p0----0--------------|
A|--------------------------------------------------------------------------|
F|-0---------------------0---------7p0-----0----------------4---------------|


[Part 6]

(1:44)
E|------------0--------------------------------8p7p0------------------------|
C|-----------------------------t7/9p0--------0-------t7-\-5-5p4p0-----------|
G|-----0--------0h4/7-----------------12N.H.--------------------------0-----|
C|---0---h4/5-----------T11/12-t7/9p0----------------T11/12-------4h5---5p4-|
A|--------------------0-----------------------------------------------------|
F|-0------------------7------------------------0----------------------------|

(1:49)
E|--------------------------------------------0-----0----0--------0-----0---0-|
C|-------0-----0-----------0----------9---9-7---7-9---11--12--1211--1112--14--|
G|-----0-----0-----0-----0-h-4p0-T7/9---0-------------------0-----------------|
C|---0-----2-----4-----0---------T7/9-----------------------------------------|
A|-0-----------------0--------------------------------------------------------|
F|-0-------2-----4--------------------0---0-0---0-0---0---0---0-0---0-0---0---|

(1:55)
E|------------0--------------------------------8p7p0------------------------|
C|-----------------------------t7/9p0--------0-------t7-\-5-5p4p0-----------|
G|-----0--------0h4/7-----------------12N.H.--------------------------0-----|
C|---0---h4/5-----------T11/12-t7/9p0----------------T11/12-------4h5---5p4-|
A|--------------------0-----------------------------------------------------|
F|-0------------------7------------------------0----------------------------|

(2:00)
E|--------------------------------------------0-----0----0--------0-----0---0-|
C|-------0-----0-----------0----------9---9-7---7-9---11--12--1211--1112--14--|
G|-----0-----0-----0-----0-h-4p0-T7/9---0-------------------0-----------------|
C|---0-----2-----4-----0---------T7/9-----------------------------------------|
A|-0-----------------0--------------------------------------------------------|
F|-0-------2-----4--------------------0---0-0---0-0---0---0---0-0---0-0---0---|

(2:07)
E|------------0--------------------------------8p7p0------------------------|
C|-----------------------------t7/9p0--------0-------t7-\-5-5p4p0-----------|
G|-----0--------0h4/7-----------------12N.H.--------------------------0-----|
C|---0---h4/5-----------T11/12-t7/9p0----------------T11/12-------4h5---5p4-|
A|--------------------0-----------------------------------------------------|
F|-0------------------7------------------------0----------------------------|

(2:12)
E|--------------------------------------------0-----0----0--------0-----0---0-|
C|-------0-----0-----------0----------9---9-7---7-9---11--12--1211--1112--14--|
G|-----0-----0-----0-----0-h-4p0-T7/9---0-------------------0-----------------|
C|---0-----2-----4-----0---------T7/9-----------------------------------------|
A|-0-----------------0--------------------------------------------------------|
F|-0-------2-----4--------------------0---0-0---0-0---0---0---0-0---0-0---0---|

(2:18)
E|------------0--------------------------------8p7p0------------------------|
C|-----------------------------t7/9p0--------0-------t7-\-5-5p4p0-----------|
G|-----0--------0h4/7-----------------12N.H.--------------------------0-----|
C|---0---h4/5-----------T11/12-t7/9p0----------------T11/12-------4h5---5p4-|
A|--------------------0-----------------------------------------------------|
F|-0------------------7------------------------0----------------------------|

(2:24)
E|--------------------------------------------0-----0----0--------0-----0---0-|
C|-------0-----0-----------0----------9---9-7---7-9---11--12--1211--1112--14--|
G|-----0-----0-----0-----0-h-4p0-T7/9---0-------------------0-----------------|
C|---0-----2-----4-----0---------T7/9-----------------------------------------|
A|-0-----------------0--------------------------------------------------------|
F|-0-------2-----4--------------------0---0-0---0-0---0---0---0-0---0-0---0---|


[Part 7]

(2:30)
E|-----------------------------------------------------------------------------------3p0-|
C|---------------------------------------------------------------------------------0-----|
G|----0-----------0--------0-----------0--------0-----------0--------0-----------4-------|
C|--0---5-4-0---0-----0--0---5-4-0---0-----0--0---5-4-0---0-----0--0---5-4-0---0---------|
A|---------------------------------------------------------------------------------------|
F|-0----------4-----7---0----------4-----7---0----------4-----7---0----------4-----------|

(2:38)
E|-----------------------------------------------------------------------------------3p0-|
C|---------------------------------------------------------------------------------0-----|
G|----0-----------0--------0-----------0--------0-----------0--------0-----------4-------|
C|--0---5-4-0---0-----0--0---5-4-0---0-----0--0---5-4-0---0-----0--0---5-4-0---0---------|
A|---------------------------------------------------------------------------------------|
F|-0----------4-----7---0----------4-----7---0----------4-----7---0----------4-----------|

(2:46)
E|-----------------------------------------------------------------------------------3p0-|
C|---------------------------------------------------------------------------------0-----|
G|----0-----------0--------0-----------0--------0-----------0--------0-----------4-------|
C|--0---5-4-0---0-----0--0---5-4-0---0-----0--0---5-4-0---0-----0--0---5-4-0---0---------|
A|---------------------------------------------------------------------------------------|
F|-0----------4-----7---0----------4-----7---0----------4-----7---0----------4-----------|

(2:55)
E|-----------------------------------------------------------------------------------3p0-|
C|---------------------------------------------------------------------------------0-----|
G|----0-----------0--------0-----------0--------0-----------0--------0-----------4-------|
C|--0---5-4-0---0-----0--0---5-4-0---0-----0--0---5-4-0---0-----0--0---5-4-0---0---------|
A|---------------------------------------------------------------------------------------|
F|-0----------4-----7---0----------4-----7---0----------4-----7---0----------4-----------|


[Part 8]

(3:03)
E|-7h8p0--------------------------------------------0-|
C|----------------------0-------------0-----0-----0---|
G|-------12T.H.---0h2h4---4p2p0-----0-----0-----0-----|
C|-------12T.H.-----------------0-2-----5-------------|
A|--------------------------------------------0-------|
F|-0------------------------------2-----5-----0-------|


[Part 9]

(3:08)
E|-----------------0---0---0---0---3---3---3---3---1---1---1---1---|
C|-------------------0---0---0---0---0---0---0---0---0---0---0---0-|
G|-----------------------------------------------------------------|
C|-----------------------------------------------------------------|
A|-----------------------------------------------------------------|
F|-----------------------------------------------------------------|

(3:13)
E|---0---0---0---0---0---0---0---0---3---3---3---3---1---1---1---1---|
C|-----0---0---0---0---0---0---0-------0---0---0-------0---0---0---0-|
G|-------------------------------------------------------------------|
C|-------------------------------------------------------------------|
A|-------------------------------------------------------------------|
F|-0-------------------------------0---------------0-----------------|

(3:19)
E|---0---0---0---0---0---0---0---0---3---3---3---3---1---1---1---1---|
C|-----0---0---0---0---0---0---0-------0---0---0-------0---0---0---0-|
G|-------------------------------------------------------------------|
C|-------------------------------------------------------------------|
A|-0-------------------------------0---------------0-----------------|
F|-------------------------------------------------------------------|

(3:25)
E|---0---0---0---0---0---0---0---0---3---3---3---3---1---1---1---1---|
C|-----0---0---0---0---0---0---0-------0---0---0-------0---0---0---0-|
G|-------------------------------------------------------------------|
C|-------------------------------------------------------------------|
A|-------------------------------------------------------------------|
F|-0-------------------------------0---------------0-----------------|

(3:30)
E|---0---0---0---0---0---0---0---0---3---3---3---3---1---1---1---1---|
C|-----0---0---0---0---0---0---0-------0---0---0-------0---0---0---0-|
G|-------------------------------------------------------------------|
C|-------------------------------------------------------------------|
A|-0-------------------------------0---------------0-----------------|
F|-------------------------------------------------------------------|

(3:36)
E|---0---0---0---0---0---0---0---0---3---3---3---3---1---1---1---1---|
C|-----0---0---0---0---0---0---0-------0---0---0-------0---0---0---0-|
G|-------------------------------------------------------------------|
C|-------------------------------------------------------------------|
A|-------------------------------------------------------------------|
F|-0-------------------------------0---------------0-----------------|

(3:41)
E|---0---0---0---0---0---0---0---0---3---3---3---3---1---1---1---1---|
C|-----0---0---0---0---0---0---0-------0---0---0-------0---0---0---0-|
G|-------------------------------------------------------------------|
C|-------------------------------------------------------------------|
A|-0-------------------------------0---------------0-----------------|
F|-------------------------------------------------------------------|

(3:47)
E|---0---0---0---0---1---1---1---1---3---3---3-----7-----8-----10--|
C|-----0---0---0-------0---0---0-------0---0---0-----0-----0-----0-|
G|-----------------------------------------------------0-----0-----|
C|-----------------------------------------------------------------|
A|-----------------------------------------------------------------|
F|-0---------------0---------------0-------------------------------|


[Part 10]

(3:52)
E|---12----15--------12-----------------------------|
C|-----0-----0---14------11----12N.H.---------0-----|
G|-------0-----0---0-------0------------7h9p7---7h9-|
C|---------------------------0----------------------|
A|--------------------------------------------------|
F|-0------------------------------------------------|

(3:56)
E|-------------------------------------------|
C|-------0---------------------------0-------|
G|-12--12--12--10--9---5-----4-----4---4---7-|
C|---0-------0---0---0---------0-------------|
A|-------------------------0-----0-------0---|
F|-0---0---0---0---0---0---------------------|

(3:59)
E|---12----15--------12-----------------------------|
C|-----0-----0---14------11----12N.H.---------0-----|
G|-------0-----0---0-------0------------7h9p7---7h9-|
C|---------------------------0----------------------|
A|--------------------------------------------------|
F|-0------------------------------------------------|

(4:03)
E|-------------------------------------------|
C|-------0---------------------------0-------|
G|-12--12--12--10--9---5-----4-----4---4---7-|
C|---0-------0---0---0---------0-------------|
A|-------------------------0-----0-------0---|
F|-0---0---0---0---0---0---------------------|

(4:06)
E|---12----15--------12-----------------------------|
C|-----0-----0---14------11----12N.H.---------0-----|
G|-------0-----0---0-------0------------7h9p7---7h9-|
C|---------------------------0----------------------|
A|--------------------------------------------------|
F|-0------------------------------------------------|

(4:09)
E|-------------------------------------------|
C|-------0---------------------------0-------|
G|-12--12--12--10--9---5-----4-----4---4---7-|
C|---0-------0---0---0---------0-------------|
A|-------------------------0-----0-------0---|
F|-0---0---0---0---0---0---------------------|

(4:13)
E|---12----15--------12-----------------------------|
C|-----0-----0---14------11----12N.H.---------0-----|
G|-------0-----0---0-------0------------7h9p7---7h9-|
C|---------------------------0----------------------|
A|--------------------------------------------------|
F|-0------------------------------------------------|

(4:16)
E|-------------------------------------------|
C|-------0---------------------------0-------|
G|-12--12--12--10--9---5-----4-----4---4---0-|
C|---0-------0---0---0---------0-------------|
A|-------------------------0-----0-------0---|
F|-0---0---0---0---0---0---------------------|


[Part 11]

(4:20)
E|---------------------------------------------------------------------------------------3p0-|
C|-------------------------------------------------------------------------------------0-----|
G|-----0-----------0---------0-----------0---------0-----------0---------0-----------4-------|
C|---0-------0---0-----0---0-------0---0-----0---0-------0---0-----0---0-------0---0---------|
A|-------5/7-------------------5/7-------------------5/7-------------------5/7---------------|
F|-0-----------4-----7---0-----------4-----7---0-----------4-----7---0-----------4-----------|

(4:28)
E|---------------------------------------------------------------------------------------3p0-|
C|-------------------------------------------------------------------------------------0-----|
G|-----0-----------0---------0-----------0---------0-----------0---------0-----------4-------|
C|---0-------0---0-----0---0-------0---0-----0---0-------0---0-----0---0-------0---0---------|
A|-------5/7-------------------5/7-------------------5/7-------------------5/7---------------|
F|-0-----------4-----7---0-----------4-----7---0-----------4-----7---0-----------4-----------|

(4:36)
E|---------------------------------------------------------------------------------------3p0-|
C|-------------------------------------------------------------------------------------0-----|
G|-----0-----------0---------0-----------0---------0-----------0---------0-----------4-------|
C|---0-------0---0-----0---0-------0---0-----0---0-------0---0-----0---0-------0---0---------|
A|-------5/7-------------------5/7-------------------5/7-------------------5/7---------------|
F|-0-----------4-----7---0-----------4-----7---0-----------4-----7---0-----------4-----------|

(4:44)
E|---------------------------------------------------------------------------------------0----0-|
C|-------------------------------------------------------------------------------------0----0---|
G|-----0-----------0---------0-----------0---------0-----------0---------0-----------4----4-----|
C|---0-------0---0-----0---0-------0---0-----0---0-------0---0-----0---0-------0---0------------|
A|-------5/7-------------------5/7-------------------5/7-------------------5/7------------------|
F|-0-----------4-----7---0-----------4-----7---0-----------4-----7---0-----------4--------------|

(4:53)
E|---------|
C|-0h2-----|
G|-2-------|
C|-0-------|
A|-0-------|
F|-0-------|

************************************

| h     hammer-on
| p     pull-off
| /     slide up
| \     slide down
| t     left hand tap
| T     right hand tap
| N.H.  natural harmonic
| T.H.  tapped harmonic

************************************

            
            
Suggest correction
Creating personal tab
Creating personal tab
You can edit any tab online and save it as your Personal.

You can edit, replace or remove any tab part or add personal notes – all changes will be seen only by you.

Personal tabs can be accessed anytime from any device, even offline.
Learn more »
comments
print report bad tab
1 comment total.
+4 reply
zav96val 10 May 14, 2016 10:15 AM

second line is

E|---------------------------------------------------------------------|
C|-----4p0-----------------0-------------4p0-----------------0---------|
G|---------4-----5---0h2h4---4p2p0-----------4-----5---0h2h4---4p2p0---|
C|---0-------0---------------------0---0-------0---------------------0-|
A|-0-----------0---------------------0-----------0---------------------|
F|---------------------------------------------------------------------|

guest
You may want to rate the tab now too:
select rating
Wanna post a correction for this tab? Suggest correction