Oops, an error
Loading. Please wait.

2 Places At 1 Time tab

version 1
version 1

Whole song

  • Full Guitar tab of main fingerpicked part with bac... Show more
397 views 15 this week
no commentswrite comment
1 2 3 4 5
1 last vote to show rating
add to favorites
×
Save as Personal and add changes to this tab that will be seen only by you. Learn more ›
×
You can save this tab as Personal to edit and correct it or add notes. All changes will be seen only by you. Learn more »
launch autoscroll
font size
0
reset
how to read this tab
guitar tuner
edit
Autoscroll
slow
fast
+/-
esc
set tempo
stop
About this tab version
Full Guitar tab of main fingerpicked part with backing chords. Please rate or comment. Was this info helpful? Yes No
Capo Fret 1 (note chords are written a fret flat as reference since pitch is a fret higher)

Fingerpicked guitar with some supporting rhythm chords

[Intro]

   G                              D/F#
e|------------------------------|----------------------------------|
B|-----------------1-----3------|-3--------------------------------|
G|-0-------2h4------------------|----4--2--4-----2h4p2p0---0-------|
D|-0-----0-------0----2-----0---|-0----------0-0---------0---4--0--|
A|-----------------0-----2------|----------------------------------|
E|-3----------------------------|-------2--------2---------2-------|

   G                              D/F#
e|------------------------------|--------------------------------|
B|-----------------1-----3------|-3------------------------------|
G|-0-------2h4------------------|----4--2--4-----2---------------|
D|-0-----0-------0----2-----0---|-0----------0-0-----0-------0---|
A|-----------------0-----2------|--------------------------------|
E|-3----------------------------|-------2--------2-------2-------|



[Verse]
   G                                Cadd2
e|--------------------------------|---------------------------------|
B|--------------------------------|--------(3---0---3)--------------|   () notes on 2nd guitar
G|-------0-----2h4-------0------0-|-------0-------0-------0-------0-|
D|-----0-------------0-0-----4----|---0h2-----0h2-----0h2-----0h2---|
A|--------------------------------|-3-------3-------3-------0-------|
E|-3-------3-----3-------3--------|---------------------------------|

play Verse 4x similarly



[Prechorus 1]
  C                                  G                           Am
e|---------------------------------|---------------------------|-------------------------|
B|-1-------1-------1-------1-------|-----------0---------------|-1-----------------------|
G|-----0-------0-------0-------0---|---------0-----------0-----|----------0-----0--------|
D|-------2-------2-------2-------2-|---0-----------0-----------|-------------------------|
A|-3-------3-------3-------3-------|---------------------------|-0-----2-----3-----3/5---|
E|---------------------------------|-3-----------3-------------|-------------------------|

e|---------------------------------|
B|-------------3-----3-------------|
G|----------------0----------------|
D|-----4h5-------------------------|
A|-5-------------------------------|
E|---------------------------------|



[Chorus]

   G                           C                   G
e|---------------------------------|-------------------------------|
B|-------0---------------0-----1---|-1---1---1---1-0---------------|
G|-----0-----0---------0-----0-0---|-0---0---0---0-0---0-------0---|
D|---0---------0-----0---------2---|-2---2---2---2-0-------0-------|
A|---------------------------------|-------------------------------|
E|-3---------------3---------------|-------------------------------|

   C             G                   D
e|---------------------------------|----------------------------------|
B|-1---1---1---1-0---0-----0---0---|-----3---3-3-3------3-----3---3---|
G|-0---0---0---0-0---0-----0---0---|-----2---2-2-2------2-----2---2---|
D|-2---2---2---2-0-------0---0-----|-----4---4-4-4-5p4--4-----4---4---|
A|---------------------------------|-5-------5-5-5-5----5-----5---5---|
E|---------------------------------|----------------------------------|

   Em                                C       G/B     Am
e|-----0-----0-0-0-----0-----0-----|------------------------------------|
B|-----0-----0-0-0-----0-----0-----|-------1-------0-------1-----1-1-1--|
G|-----0-----0-0-0-----0-----0-----|-----0-------0-------2-------2-2-2--|
D|-2---2-----2-2-2-----2-----2-----|-----------------------------2-2-2--|
A|-2---2-----2-2-2-----2-----2-----|-3-------2-------0-----------0-0-0--|
E|-0---0-----0-0-0-----0-----0-----|------------------------------------|

   C             D
e|-0-------------2-----------------|
B|-1-------------3-----------------|
G|-0-------------2-----------------|
D|-2-------------0-----------------|
A|-3-------------0-----------------|
E|---------------------------------|
  "To be at two places at one"


[Revisit Intro]
   G                              D/F#
e|------------------------------|----------------------------------|
B|-----------------1-----3------|-3--------------------------------|
G|-0-------2h4------------------|----4--2--4-----2---0-------------|
D|-0-----0-------0----2-----0---|-0----------0-0--------0------0---|
A|-----------------0-----2------|----------------------------------|
E|-3----------------------------|-------2--------2---------2-------|
   "time..."

   G                              D/F#
e|------------------------------|--------------------------------|
B|-----------------1-----3------|-3------------------------------|
G|-0-------2h4------------------|-----4-2---4----2---------------|
D|-0-----0-------0----2-----0---|-0------------------0-------0---|
A|-----------------0-----2------|--------------------------------|
E|-3----------------------------|-------2--------2-------2-------|



[Verse 2]
   G                                Cadd2
e|--------------------------------|---------------------------------|
B|--------------------------------|--------(3---0---3)--------------|   () notes on 2nd guitar
G|-------0-----2h4-------0------0-|-------0-------0-------0-------0-|
D|-----0-------------0-0-----4----|---0h2-----0h2-----0h2-----0h2---|
A|--------------------------------|-3-------3-------3-------0-------|
E|-3-------3-----3-------3--------|---------------------------------|

play Verse 4x similarly



[Prechorus 2]
  C                                  G                           Am
e|---------------------------------|---------------------------|-------------------------|
B|-1-------1-------1-------1-------|-----------0---------------|-1-----------------------|
G|-----0-------0-------0-------0---|---------0-----------0-----|----------0-----0--------|
D|-------2-------2-------2-------2-|---0-----------0-----------|-------------------------|
A|-3-------3-------3-------3-------|---------------------------|-0-----2-----3-----3/5---|
E|---------------------------------|-3-----------3-------------|-------------------------|

e|---------------------------------|
B|-------------3-----3-------------|
G|----------------0----------------|
D|-----4h5-------------------------|
A|-5-------------------------------|
E|---------------------------------|



[Chorus 2]

   G                           C                   G
e|---------------------------------|-------------------------------|
B|-------0---------------0-----1---|-1---1---1---1-0---------------|
G|-----0-----0---------0-----0-0---|-0---0---0---0-0---0-------0---|
D|---0---------0-----0---------2---|-2---2---2---2-0-------0-------|
A|---------------------------------|-------------------------------|
E|-3---------------3---------------|-------------------------------|

   C             G                   D
e|---------------------------------|----------------------------------|
B|-1---1---1---1-0---0-----0---0---|-----3---3-3-3------3-----3---3---|
G|-0---0---0---0-0---0-----0---0---|-----2---2-2-2------2-----2---2---|
D|-2---2---2---2-0-------0---0-----|-----4---4-4-4-5p4--4-----4---4---|
A|---------------------------------|-5-------5-5-5-5----5-----5---5---|
E|---------------------------------|----------------------------------|

   Em                                C       G/B     Am
e|-----0-----0-0-0-----0-----0-----|------------------------------------|
B|-----0-----0-0-0-----0-----0-----|-------1-------0-------1-----1-1-1--|
G|-----0-----0-0-0-----0-----0-----|-----0-------0-------2-------2-2-2--|
D|-2---2-----2-2-2-----2-----2-----|-----------------------------2-2-2--|
A|-2---2-----2-2-2-----2-----2-----|-3-------2-------0-----------0-0-0--|
E|-0---0-----0-0-0-----0-----0-----|------------------------------------|

   C             D
e|-0-------------2-----------------|
B|-1-------------3-----------------|
G|-0-------------2-----------------|
D|-2-------------0-----------------|
A|-3-------------0-----------------|
E|---------------------------------|
  "To be at two places at one"


[Intro Again]
   G                              D/F#
e|------------------------------|----------------------------------|
B|-----------------1-----3------|-3--------------------------------|
G|-0-------2h4------------------|----4--2--4-----2---------0-------|
D|-0-----0-------0----2-----0---|-0----------0-0------0------4--0--|
A|-----------------0-----2------|----------------------------------|
E|-3----------------------------|-------2--------2---------2-------|
   "time                                         two places at one"

   G                              D/F#
e|------------------------------|--------------------------------|
B|-----------------1-----3------|-3------------------------------|
G|-0-------2h4------------------|----4--2--4-----2---------------|
D|-0-----0-------0----2-----0---|-0----------0-0-----0-------0---|
A|-----------------0-----2------|--------------------------------|
E|-3----------------------------|-------2--------2-------2-------|
   "time"



[Bridge]

   Em                                 C
e|-----0-----0-0-0-----0-----0-0-0--|-----0-----0-0-0-----0-----0-0-0--|
B|-----0-----0-0-0-----0-----0-0-0--|-----1-----1-1-1-----1-----1-1-1--|
G|-----0-----0-0-0-----0-----0-0-0--|-----0-----0-0-0-----0-----0-0-0--|
D|-2---2-----2-2-2-2---2-----2-2-2--|-2---2-----2-2-2-2---2-----2-2-2--|
A|-2---2-----2-2-2-2---2-----2-2-2--|-3---3-----3-3-3-3---3-----3-3-3--|
E|-0---0-----0-0-0-0---0-----0-0-0--|-3---3-----3-3-3-3---3-----3-3-3--|

   G                                  B7
e|----------------------------------|-2---2-----2-2-2-2---2-----2-2-2--|
B|-0---0-----0-0-0-0---0-----0-0-0--|-4---4-----4-4-4-4---4-----4-4-4--|
G|-0---0-----0-0-0-0---0-----0-0-0--|-2---2-----2-2-2-2---2-----2-2-2--|
D|-0---0-----0-0-0-0---0-----0-0-0--|-4---4-----4-4-4-4---4-----4-4-4--|
A|-2---2-----2-2-2-2---2-----2-2-2--|-2---2-----2-2-2-2---2-----2-2-2--|
E|-3---3-----3-3-3-3---3-----3-3-3--|----------------------------------|

   Am                                 C
e|-0---0-----0-0-0-0---0-----0-0-0--|-----0-----0-0-0-----0-----0-0-0--|
B|-1---1-----1-1-1-1---1-----1-1-1--|-----1-----1-1-1-----1-----1-1-1--|
G|-2---2-----2-2-2-2---2-----2-2-2--|-----0-----0-0-0-----0-----0-0-0--|
D|-2---2-----2-2-2-2---2-----2-2-2--|-2---2-----2-2-2-2---2-----2-2-2--|
A|-0---0-----0-0-0-0---0-----0-0-0--|-3---3-----3-3-3-3---3-----3-3-3--|
E|----------------------------------|-3---3-----3-3-3-3---3-----3-3-3--|


e|-2---2-2---2-2-2-2---2-2---2-2-2--|-2---2-2---2-2-2-2-----------------------|
B|-3---3-3---3-3-3-3---3-3---3-3-3--|-3---3-3---3-3-3-3-----------------------|
G|-2---2-2---2-2-2-2---2-2---2-2-2--|-2---2-2---2-2-2-2-----------------------|
D|-0---0-0---0-0-0-0---0-0---0-0-0--|-0---0-0---0-0-0-0-----------------------|
A|----------------------------------|-----------------------------------------|
E|----------------------------------|-----------------------------------------|



[Final Chorus]

   C          G               D/F#         G
e|--------------------------|---------------------------|
B|-1----------0-------------|-3------------0------------|
G|-0----------0-------------|-2------------0------------|
D|-2----------0-------------|-0------------0------------|
A|-3----------2-------------|-0------------2------------|
E|------------3-------------|-2------------3------------|

   C             G                   D
e|---------------------------------|----------------------------------|
B|-1---1---1---1-0---0-----0---0---|-----3---3-3-3------3-----3---3---|
G|-0---0---0---0-0---0-----0---0---|-----2---2-2-2------2-----2---2---|
D|-2---2---2---2-0-------0---0-----|-----4---4-4-4-5p4--4-----4---4---|
A|---------------------------------|-5-------5-5-5-5----5-----5---5---|
E|---------------------------------|----------------------------------|

   Em                                C       G/B     Am
e|-----------------3---3-----3-3-3--|------------------------------------|
B|-1---1-----1-1-1-0---0-----0-0-0--|-------1-------0-------1-----1-1-1--|
G|-0---0-----0-0-0-0---0-----0-0-0--|-----0-------0-------2-------2-2-2--|
D|-2---2-----2-2-2-0---0-----0-0-0--|-----------------------------2-2-2--|
A|-3---3-----3-3-3-2---2-----2-2-2--|-3-------2-------0-----------0-0-0--|
E|-----------------3---3-----3-3-3--|------------------------------------|

   Em                                C       G/B     Am
e|------------------------------------|------------------------------------|
B|-------1-------0-------1-----1-1-1--|-------1-------0-------1-----1-1-1--|
G|-----0-------0-------2-------2-2-2--|-----0-------0-------2-------2-2-2--|
D|-----------------------------2-2-2--|-----------------------------2-2-2--|
A|-3-------2-------0-----------0-0-0--|-3-------2-------0-----------0-0-0--|
E|------------------------------------|------------------------------------|

   C             D
e|-0-------------2-----------------|
B|-1-------------3-----------------|
G|-0-------------2-----------------|
D|-2-------------0-----------------|
A|-3-------------0-----------------|
E|---------------------------------|
  "To be at two places at one"



[Outro]
   G                              D/F#
e|------------------------------|----------------------------------|
B|-----------------1-----3------|-3--------------------------------|
G|-0-------2h4------------------|----4--2--4-----2---------0-------|  play 2x
D|-0-----0-------0----2-----0---|-0----------0-0------0------4--0--|
A|-----------------0-----2------|----------------------------------|
E|-3----------------------------|-------2--------2---------2-------|
   "time                                         two places at one"


   G                              D/F#                              G
e|------------------------------|--------------------------------|--3----------|
B|-----------------1-----3------|--------------------------------|--0----------|
G|-0-------2h4------------------|-------4---0---2h4p2p0---0------|--0----------|
D|-0-----0-------0----2-----0---|---------------------------4----|--0----------|
A|-----------------0-----2------|--------------------------------|--2----------|
E|-3----------------------------|-2---2---------2-------2--------|--3----------|
   "time"



************************************
KEY

| h   Hammer-on
| p   Pull-off
| r   Release
| /   Slide up
| \   Slide down

************************************

            
            
Suggest correction
Creating personal tab
Creating personal tab
You can edit any tab online and save it as your Personal.

You can edit, replace or remove any tab part or add personal notes – all changes will be seen only by you.

Personal tabs can be accessed anytime from any device, even offline.
Learn more »
Give kudos to tab author, rate the tab!
1 2 3 4 5
comments
print report bad tab
guest
You may want to rate the tab now too:
select rating
Wanna post a correction for this tab? Suggest correction