Oops, an error
Loading. Please wait.
We have Chord Pro version of Chicken Fried.
It's the closest thing you can get to the original song and it has interactive parts. Check out the tab »
×
1,063 views 12 this week
no commentswrite comment
1 2 3 4 5
3 more votes to show rating
add to favorites
×
Save as Personal and add changes to this tab that will be seen only by you. Learn more ›
×
You can save this tab as Personal to edit and correct it or add notes. All changes will be seen only by you. Learn more »
launch autoscroll
font size
0
reset
guitar tuner
edit
Autoscroll
slow
fast
+/-
esc
set tempo
stop
Author
My first tab!
Please enjoy!

Intro till 0:24

Bass starts at 0:25
G------------------------------------------------------------------------------|
D---4---------------------------------------4----------------------------------|
A------4--1--------1--2--4-----4---4--3--2-----2--1-------------1-2-4-2-1------|
E------------2--4-----------4-----4------------------4--2-2--4------------4-2~-|


0:36
G-------------------------------------------------------------|
D-------------------------------------------------------------|
A---44~-2~-44-2-1-------------44~-2~-44-2-1------44-2-1-2-3-4-|
E-----------------4-2------2~---------------4-2~--------------|


0:59
G-----------------------------------------------------------------------------|
D---4---------------------------------------4---------------------------------|
A------4--1--------1--2--4-----4---4--3--2-----2--1-------------1-2-4-2-1-----|
E------------2--4-----------4-----4------------------4--2-2--4------------4-2-|


G---------------------------------------------------------------------------|
D---4---------------------------------------4-------------------------------|
A------4--1--------1--2--4-----4---4--3--2-----2--1-------------1-2-4-2-1---|
E------------2--4-----------4-----4------------------4--2-2--4------------4-|


1:21
G---------------------------------------------|
D---------------------------------------------|
A----44~-2~-44-2-1---------44~-2~-44-2-1------|
E-2~---------------4-2~------------------4-2~-|


1:44
G-----------------------------------------------------------------------------|
D---4---------------------------------------4---------------------------------|
A------4--1--------1--2--4-----4---4--3--2-----2--1-------------1-2-4-2-1-----|
E------------2--4-----------4-----4------------------4--2-2--4------------4-2-| 4x


2:29 - 2:50 rest


2:51
G---------------------------------------|
D---------------------------------------|
A---------------4~----------2~----------|
E---2~----------------------------------|


3:03
G-----------------------------------------------------------------------------|
D---4---------------------------------------4---------------------------------|
A------4--1--------1--2--4-----4---4--3--2-----2--1-------------1-2-4-2-1-----|
E------------2--4-----------4-----4------------------4--2-2--4------------4-2-| 2x

Then
G------------------------------------------------|
D---4---------------------------------------4----|
A------4--1--------1--2--4-----4---4--3--2-----2-|
E------------2--4-----------4-----4--------------|


A few seconds rest


Outro
G-------------------------------------------------------------------------------------------|
D---4---------------------------------------4-----------------------------------------------|
A------4--1--------1--2--4-----4---4--3--2-----2--1-------------1-2-4-2-1-------------------|
E------------2--4-----------4-----4------------------4--2-2--4------------4-2~----------1-2~|




Thanks and Enjoy!


/ = slide up
\ = slide down
h = hammer on 
p = pull off
b = bend
r = release
x = muted string
t = tap (with finger or pick)
~ = vibrato








Lyrics:

You know I like my chicken fried
A cold beer on a Friday night
A pair of jeans that fit just right
And the radio up

Well I've seen the sunrise
See the love in my woman's eyes
Feel the touch of a precious child
And know a mother's love

Well I was raised up beneath the shade of a Georgia pine
And that's home you know
Sweet tea pecan pie and homemade wine
Where the peaches grow
And my house it's not much to talk about
But it's filled with love that's grown in southern ground

And a little bit of chicken fried
Cold beer on a Friday night
A pair of jeans that fit just right
And the radio up

Well I've seen the sunrise
See the love in my woman's eyes
Feel the touch of a precious child
And know a mother's love

And it's funny how it's the little things in life that mean the most
Not where you live, what you drive, or the price tag on your clothes
There's no dollar sign on a piece of mind this I've come to know
So if you agree have a drink with me
Raise you glasses for a toast

To a little bit of chicken fried
Cold beer on a Friday night
A pair of jeans that fit just right
And the radio up

Well I've seen the sunrise
See the love in my woman's eyes
Feel the touch of a precious child
And know a mother's love

I thank God for my life
And for the stars and stripes
May freedom forever fly, let it ring
Salute the ones who died
And the ones that give their lives, so we don't have to sacrifice
All the things we love

Like our chicken fried
Cold beer on a Friday night
A pair of jeans that fit just right
And the radio up

Well I've seen the sunrise
See the love in my woman's eyes
Feel the touch of a precious child
And know a mother's love

You know I like my chicken fried
Cold beer on a Friday night
A pair of jeans that fit just right
And the radio up

Well I've seen the sunrise
See the love in my woman's eyes
Feel the touch of a precious child
And know a mother's love

            
            
Suggest correction
Creating personal tab
Creating personal tab
You can edit any tab online and save it as your Personal.

You can edit, replace or remove any tab part or add personal notes – all changes will be seen only by you.

Personal tabs can be accessed anytime from any device, even offline.
Learn more »
Give kudos to tab author, rate the tab!
1 2 3 4 5
comments
print report bad tab
guest
You may want to rate the tab now too:
select rating
Wanna post a correction for this tab? Suggest correction