Oops, an error
Loading. Please wait.
We have an official Chicken Fried tab made by UG professional guitarists. Check out the tab »
×
1,372 views 33 this week
2 commentsread comments
1 2 3 4 5
x 9
add to favorites
×
Save as Personal and add changes to this tab that will be seen only by you. Learn more ›
×
You can save this tab as Personal to edit and correct it or add notes. All changes will be seen only by you. Learn more »
launch autoscroll
font size
0
reset
guitar tuner
edit
Autoscroll
slow
fast
+/-
esc
set tempo
stop
Author
[Acoustic intro]

(0.24)
G|----------------|----------------|------------------|----------------|
D|-4--------------|----------------|-------4----------|----------------|
A|---4-1-----1-2--|-4-------4-----4|-3-2-------2-1----|----1-2-4-2-1---|
E|-------2-4------|-----4-------4--|---------------4-2|-2-4----------4-|


[Verse]

(Well I was raised up)
G|----------------|----------------|----------------|----------------|
D|----------------|----------------|----------------|----------------|
A|---------4------|-2-------4-2-1--|----------------|----------------|
E|-2--------------|---------------4|-2--------------|----------------|

G|----------------|----------------|----------------|----------------|
D|----------------|----------------|----------------|----------------|
A|---------4------|-2-------4-2-1--|---------4------|-2-1-2-3-4------|
E|-2--------------|---------------4|-2--------------|----------------|


[Chorus]

(And a little bit of chicken fried)
G|----------------|----------------|------------------|----------------|
D|-4--------------|----------------|-------4----------|----------------|
A|---4-1-----1-2--|-4-------4-----4|-3-2-------2-1----|----1-2-4-2-1---|
E|-------2-4------|-----4-------4--|---------------4-2|-2-4----------4-|

G|----------------|----------------|------------------|----------------|
D|----------------|----------------|-------4----------|----------------|
A|-----4-1----1-2-|-4-------4-----4|-3-2-------2-1----|----1-2-4-2-1---|
E|-2-------2-3----|-----4-------4--|---------------4-2|-2-4----------4-|


[Verse]

(It’s funny how it’s the little things)
G|----------------|----------------|----------------|----------------|
D|----------------|----------------|----------------|----------------|
A|---------4------|-2-------4-2-1--|---------4------|-2-------4-2-1--|
E|-2--------------|---------------4|-2--------------|---------------4|

G|----------------|
D|----------------|
A|----------------| 
E|-2--------------|


[Break for 7 bars]


[Chorus]

(To a little bit of chicken fried)
G|----------------|----------------|------------------|----------------|
D|-4--------------|----------------|-------4----------|----------------|
A|---4-1-----1-2--|-4-------4-----4|-3-2-------2-1----|----1-2-4-2-1---|
E|-------2-4------|-----4-------4--|---------------4-2|-2-4----------4-|

G|----------------|----------------|------------------|----------------|
D|----------------|----------------|-------4----------|----------------|
A|-----4-1----1-2-|-4-------4-----4|-3-2-------2-1----|----1-2-4-2-1---|
E|-2-------2-3----|-----4-------4--|---------------4-2|-2-4----------4-|


[Violin solo]

G|----------------|----------------|------------------|----------------|
D|----------------|----------------|-------4----------|----------------|
A|-----4-1----1-2-|-4-------4-----4|-3-2-------2-1----|----1-2-4-2-1---| x2
E|-2-------2-3----|-----4-------4--|---------------4-2|-2-4----------4-|

G|---|
D|---|
A|---| (Bass Break)
E|-2-|


[Verse]

(Salute the ones who died)
G|----------------|----------------|----------------|----------------|
D|----------------|----------------|----------------|----------------|
A|----------------|-4--------------|-2--------------|----------------|
E|-2--------------|----------------|----------------|----------------|


[Chorus]

(Like our chicken fried)
G|----------------|----------------|------------------|----------------|
D|-4--------------|----------------|-------4----------|----------------|
A|---4-1-----1-2--|-4-------4-----4|-3-2-------2-1----|----1-2-4-2-1---|
E|-------2-4------|-----4-------4--|---------------4-2|-2-4----------4-|

G|----------------|----------------|------------------|----------------|
D|----------------|----------------|-------4----------|----------------|
A|-----4-1----1-2-|-4-------4-----4|-3-2-------2-1----|----1-2-4-2-1---|
E|-2-------2-3----|-----4-------4--|---------------4-2|-2-4----------4-|

(Get a little chicken fried)
G|----------------|----------------|----------------|----------------|
D|----------------|----------------|------4-4-------|----------------|
A|------4-4-------|-4-4------4-----|-2-2------2-----|----------------|
E|-2-2-------2----|------4-4-------|----------------|----------------|

G|----------------|----------------|------------------|----------------|
D|-4--------------|----------------|-------4----------|----------------|
A|---4-1-----1-2--|-4-------4-----4|-3-2-------2-1----|----1-2-4-2-1---|
E|-------2-4------|-----4-------4--|---------------4-2|-2-4----------4-|

G|----------------|----------------|
D|----------------|----------------|
A|----------------|-4--------------|
E|-2--------------|---2------------|

            
            
Suggest correction
Creating personal tab
Creating personal tab
You can edit any tab online and save it as your Personal.

You can edit, replace or remove any tab part or add personal notes – all changes will be seen only by you.

Personal tabs can be accessed anytime from any device, even offline.
Learn more »
comments
print report bad tab
2 comments total.
+1 reply
DarrenMackay 43 Aug 15, 2016 09:04 AM

Good Tab m8 better than all the others!

guest
You may want to rate the tab now too:
select rating
Wanna post a correction for this tab? Suggest correction