Oops, an error
Loading. Please wait.

Free Tab

version 1
version 1

Whole song

Interactive

111,431 views 96 this week
5 commentsread comments
1 2 3 4 5
x 21
add to favorites
launch autoscroll
font size
0
reset
how to read this tab
guitar tuner
×
Best way to learn
"Free"
Autoscroll
slow
fast
+/-
esc
set tempo
stop
Difficulty
intermediate
Standard Tuning
Capo on 2

[Intro]
(guitar 1)
e|----------------------------------------------------------------------|
B|----------------------------------------------------------------------|
G|------0---0------0---2-------0---------0----0------0---2-------0------|
D|--0h2---2----2-----------0-----0---0h2---2-----2-----------0-----0----|
A|--3-------3----3---3---3---3-----3----------3----3---3---3---3-----3--|
E|----------------------------------------------------------------------|

e|----------------0------------------0h1h0---0-----------------------|
B|--------1----------1-------1----------------------0h1h---0h1-------|
G|--0h2-------2----------2-----2-------------------------2-----2-----|
D|--3---3---3---3---3--3---3-----3---------3-----3---------------3h0-|
A|-------------------------------------------------------------------|
E|-------------------------------------------------------------------|

[Verse 1]
e|----------------------------------------------------------------------|
B|----------------------------------------------------------------------|
G|------0---0------0---2-------0---------0----0------0---2-------0------|
D|--0h2---2----2-----------0-----0---0h2---2-----2-----------0-----0----|
A|--3-------3----3---3---3---3-----3----------3----3---3---3---3-----3--|
E|----------------------------------------------------------------------|

e|----------------0-----------------0h1h0---0------------------------|
B|--------1----------1-------1--------------------0h1h---0h1---------|
G|--0h2-------2----------2-----2-----------------------2-----2-------|
D|--3---3---3---3---3--3---3-----3--------3----3----------------3h0--|
A|-------------------------------------------------------------------|
E|-------------------------------------------------------------------|

e|----------------------------------------------------------------------|
B|----------------------------------------------------------------------|
G|------0---0------0---2-------0---------0----0------0---2-------0------|
D|--0h2---2----2-----------0-----0---0h2---2-----2-----------0-----0----|
A|--3-------3----3---3---3---3-----3----------3----3---3---3---3-----3--|
E|----------------------------------------------------------------------|

e|----------------------------0---|
B|--------1-------1-----------1---|
G|--0h2-------2-------2---2---2---|
D|--3---3---3---3---3---3-----3---|
A|--------------------------------|
E|--------------------------------|


************************************

| h  Hammer-on

************************************
Suggest correction
comments
print report bad tab
5 comments total. Showing first comments.
0 reply
FranKLynn 20 Sep 11, 2010 10:21 AM

Sounds pretty good

0 reply
ONE-TWO-- 10 Dec 05, 2010 06:14 PM

Capo is supposed to be on the 2nd fret

0 reply
ONE-TWO-- 10 Dec 05, 2010 06:17 PM

sorry my bad I just checked the comments before the tab

guest
You may want to rate the tab now too:
select rating
Wanna post a correction for this tab? Suggest correction