Oops, an error
Loading. Please wait.

Heavy Is The Head bass

3,124 views 21 this week
no commentswrite comment
1 2 3 4 5
x 5
add to favorites
×
Save as Personal and add changes to this tab that will be seen only by you. Learn more ›
×
You can save this tab as Personal to edit and correct it or add notes. All changes will be seen only by you. Learn more »
launch autoscroll
font size
0
reset
guitar tuner
edit
Autoscroll
slow
fast
+/-
esc
set tempo
stop
Tab Submitted by: Challenger440

Tab from YouTube account CoverSolutions

"Heavy Is the Head" by Zac Brown Band featuring Chris Cornell from Jekyll + Hyde (2015).

Intro
Gb|----------------------------------|------------------------------------|
Db|----------------------------------|-------------------------------5/---|
Ab|------5--5h7-----X--2p0-----0-----|------5--5h7------------X-5h7-------|
Eb|---0----------0----------2----3---|---0-----------0--X-6p5-------------|

Gb|-----------------------7-9---------|-------------------------------------|
Db|-------------------7h9------X-5/---|-------------------------------------|
Ab|------5--5h7-----X-----------------|------5--5h7-----X--2p0-----0--0h2---|
Eb|---0----------0--------------------|---0----------0----------2-----------|

Gb|---------------------------------|--------------------7h9--------------|
Db|---------------------------------|------------------------7h9--5h7p5---|
Ab|------5--5h7-----X--2p0----0-----|------5--5h7-----X-------------------|
Eb|---0----------0----------2---3---|---0----------0----------------------|

Verse 1
Gb|-------------------------|-----------------|---------------------------------|
Db|-------------------------|-----------------|---------------------------------|
Ab|---7-----7---------------|-----------------|------7--5h7------7------7-5h7---|
Eb|------0-----(5h)7--7/8---|---(8)--5---5\---|---0----------0-7---0-7----------|

Gb|------------------------------------|
Db|------------------------------------|
Ab|------5--5h7----------5--5h7--------|
Eb|---0----------0--X-7----------5h7---|

Gb|-------------------------------|-------|---------------------------|-------------------------------|
Db|------------------------5------|-------|---------------------------|-------------------------------|
Ab|---------------------5---------|-------|------7--5h7------5--5h7---|------5--5h7-------------------|
Eb|---7---7-7---7--7\3--------5---|---2---|---0----------0------------|---0----------5/7-7-7-5\3--0---|

Gb|----------------------------|------------------------------|-----------------------|
Db|----------------------------|------------------------------|-----------------------|
Ab|------5---7\------X-X-5h7---|---------------------X--5/7---|---------5h7-----------|
Eb|---0-----------0------------|---0-----X--X-0-0-------------|---0----------0----X---|

Gb|------------------------------|
Db|------------------------------|
Ab|-------X--5---7\-----X--5h7---|
Eb|---0--------------0-----------|

Gb|----------------------------|----------------------7--7/9---|-------------------------|-------------------|
Db|----------------------------|-------------------------------|---------------------5---|---7/9-7-5-7-5-----|
Ab|------5---7\-------X--5h7---|------------5h7-------5--5/7---|---7------5h7-----7------|---------------7---|
Eb|---0-----------0------------|---0---X--X------0-0-----------|------0--------0---------|-------------------|

Gb|---9-7----------------------------9---|---9-7------------------------|
Db|--------9--9-7----7--9p7--------------|--------9--9-7----7-9p7-------|
Ab|---------------10--------10-9--7------|---------------10--------10---|
Eb|--------------------------------------|------------------------------|

Chorus
Gb|------------------------|-------------------------|-------------------------|--------------------------|
Db|---7---7--7-7--7----7---|---7---7--7-7--7----7\---|-------------------------|---2\7--7--7--7--7----7---|
Ab|------------------------|-------------------------|---0---0--0-0--0-----0---|--------------------------|
Eb|------------------------|-------------------------|-------------------------|--------------------------|

Gb|----------------|
Db|----------------|
Ab|---9------(9)---|
Eb|----------------|

Guitar Solo 1
Gb|---------------------|----------------------|--------------------|----------------------|
Db|---------------------|----------------------|--------------------|----------------------|
Ab|------7-------7------|---5---5--------------|-------7--------7---|---5---5--------------|
Eb|---0------0------0---|----------X-5---5-X---|---0------X-0-------|----------X-5---5-X---|

Gb|-------------|----------------------|----------------------|------------------------|-------------|
Db|-------------|----------------------|----------------------|------------------------|-------------|
Ab|---7-----7---|---5---5--------------|---7---7--X-5---5-X---|----------------5-------|---7--5------|
Eb|------0------|----------X-5---5-X---|----------------------|---5---5--X-0-------5---|---------5---|

Bridge
Gb|--------------------------------|-----------------------------|----------------------------|
Db|--------------------------------|-----------------------------|----------------------------|
Ab|---7-7--7----------0-5-7--------|-----0-5-7-------0-5-7-------|---5-5--5-------0-5-7-------|
Eb|------------7-5-0---------0-5---|---7-------0-5-7-------0-5---|----------0-5-7-------0-5---|

Gb|------------------------------|
Db|------------------------------|
Ab|-----0-5-7-------0-5-7--------|
Eb|---7-------0-5-7--------0-5---|

Gb|-----------------------------|-----------------------------|-------------------------|
Db|-----------------------------|-----------------------------|-----------9-------------|
Ab|----------------0-5-7--------|-----0-5-7-------0-5-7-------|-------------------------|
Eb|---8-8-8--0-5-7--------0-5---|---7-------0-5-7-------0-5---|---7-7--7-----X-7-7--7/--|

Pre Chorus
Gb|-----------------------------|------------------------------------|------------------------------------|
Db|-----------------------------|------------------------------------|------------------------------------|
Ab|-------5--5h7------------5---|-------5--5h7-----X--2p0-----0------|------5--5h7-----X---------5--5h7---|
Eb|---0-----------0---5--7------|---0-----------0----------2-----3---|---0----------0-----5h7p5-----------|

Gb|------------------------------------|
Db|-------------5h6-7-7-7-7-5----------|
Ab|------5--5h7----------------7-5-----|
Eb|---0----------------------------7---|

Chorus
Gb|--------------------------------|--------------------|----------------------------|
Db|--------------------------------|--------------------|----------------------------|
Ab|------5--5h7--------------------|--------------------|------5--7/-----0--5--5h7---|
Eb|---0----------0---(5)7---7--8---|---8-\-\-5--5--5\---|---0---------0--------------|

Gb|-----------------7-------------------|
Db|-------------\9-----(9)7-5-----------|
Ab|------5--7\----------------7-5-------|
Eb|---0----------------------------7\---|

Gb|---------------------------|---------------------|-----------------------------|
Db|---------------------------|---------------------|-----------------------------|
Ab|------2--2--2--------------|---------------------|-------7--5h7-------5--5h7---|
Eb|---0-----------3----3--5---|---(5)/---14--(14)---|---0------------0------------|

Gb|----------7--------------------|
Db|------/9----9-7-5--------------|
Ab|------------------7-5----------|
Eb|---0------------------7-5-3\---|

Verse
Gb|--------------------------|------------------------------|--------------------------|---------------|
Db|--------------------------|------------------------------|--------------------------|---------------|
Ab|---------5h7--------------|------------------X--5--5h7---|--------------------------|---------------|
Eb|---0-----------0------0---|---0--------X-0---------------|---0-----X--0--0------X---|---0----3--2---|

Gb|---------------------------|------------------------------|-----------------------------|
Db|---------------------------|--------------------------5---|-------------------------5---|
Ab|------5--7/-------X--5h7---|-----------5h7-----X--5h7-----|-----------------X-X-X-7-----|
Eb|---0----------0------------|---0---X-X-----0--------------|---0-----X--0-0--------------|

Gb|---------------------|-------------------------------|-------------------------------|
Db|---7/9-7-5-7-5-------|-------------------------------|-------------------------------|
Ab|---------------7-X---|-------------------------------|-------------------------------|
Eb|---------------------|---0---------------------------|-------------------------------|

Pre Chorus
Gb|---------------------------|-------------------------7---|---9p7---------------------------------|--------|
Db|---(5)7---7--7-7--7----7---|---7---7--7-7--7--7h9-10-----|-------10p9-7--------------------------|--------|
Ab|---------------------------|-----------------------------|--------------10-9-7-------------------|--------|
Eb|---------------------------|-----------------------------|---------------------10p9-8----10/12---|---10---|

Gb|---------------|
Db|---------------|
Ab|---9\-----/9---|
Eb|---------------|

Guitar Solo 2
Gb|---------------------|---------------------|---------------|---------------------|
Db|---------------------|---------------------|---------------|---------------------|
Ab|------7-----7--------|---5--5--------------|------7--------|---5--5--------------|
Eb|---0-----0-----X-0---|---------X-5---5-X---|---0-----X-5---|---------X-5---5-X---|

Gb|-----------------------|------------------------|-------------|
Db|-----------------------|------------------------|-------------|
Ab|---7---7--X-5---5--X---|----------------5-------|---7--5------|
Eb|-----------------------|---5---5--X--0------5---|---------5---|

Bridge 2
Gb|----------------------------|-----------------------------|----------------------------|
Db|----------------------------|-----------------------------|----------------------------|
Ab|---7-7--7-------0-5-7-------|-----0-5-7-------0-5-7-------|---5-5--5-------0-5-7-------|
Eb|----------7-5-0-------0-5---|---7-------0-5-7-------0-5---|----------0-5-7-------0-5---|

Gb|-----------------------------|
Db|-----------------------------|
Ab|-----0-5-7-------0-5-7-------|
Eb|---7-------0-5-7-------0-5---|

Gb|----------------------------|-----------------------------|-----------------------|
Db|----------------------------|-----------------------------|---9-9--9\---9-9--9\---|
Ab|----------------0-5-7-------|-----0-5-7-------0-5-7-------|-----------------------|
Eb|---8-8-8--0-5-7-------0-5---|---7-------0-5-7-------0-5---|-----------------------|

Gb|------------|------------|------------|----------------------------------|------------------------------|
Db|------------|------------|------------|---5---5---5------5---5---5-------|---5---5---5------------------|
Ab|------------|------------|------------|-----7---7---7-7----7---7---7-7---|-----7---7---7-7--------------|
Eb|------------|------------|------------|----------------------------------|-----------------7-0-5-3-3\---|

Chorus
Gb|---------------------|------------------|
Db|-------9--7----------|-------------11---|
Ab|---------------------|-------/14--------|
Eb|---0---------7---7---|---8--------------|

Gb|-------------------------------|----------------------------------|--------------|-------------|-------|
Db|-------------------------------|----------------------------------|--------------|-------------|-------|
Ab|-----5-7-4-5-4-----X-4-5-6-7---|-----5-7--4-5-4------X-4-5-6-7----|--------------|-------------|-------|
Eb|---7-----------7-7-------------|---7-------------7-7--------------|---7------3---|---5-----2---|---0---|

************************************

| h  Hammer-on
| p  Pull-off
| \  Slide down
| /  Slide up
| X  Dead note

************************************

            
            
Suggest correction
Creating personal tab
Creating personal tab
You can edit any tab online and save it as your Personal.

You can edit, replace or remove any tab part or add personal notes – all changes will be seen only by you.

Personal tabs can be accessed anytime from any device, even offline.
Learn more »
comments
print report bad tab
guest
You may want to rate the tab now too:
select rating
Wanna post a correction for this tab? Suggest correction