Oops, an error
Loading. Please wait.

Highway 20 Ride Tab

version 4
version 4

Intro

Whole song

10 views 1 this week
no commentswrite comment
1 2 3 4 5
2 more votes to show rating
add to favorites
launch autoscroll
font size
0
reset
how to read this tab
guitar tuner
Autoscroll
slow
fast
+/-
esc
set tempo
stop
Help us to improve Ultimate-Guitar.com Take our survey!
×
Author
Capo
3rd fret
About this tab version
The melody line in the 2 first strings is E, C / G, E / F, E / E, - /. In 3rd measure I propose 3 times F (on 4th string) with the thumb. The final measure would need... em... some improvement. Was this info helpful? Yes No
Highway 20 Ride Intro

C: x32010
F: 133211

CAPO 3

     C                           F              C
 
e||--0------------|-3--------0---|-0h1-------0---|-0---------------|
B||-----------1---|--------------|---------------|----------1------|
G||-------0-------|------0-------|-------2-------|------0----------|
D||-----2-------2-|----2-------2-|-----3---3---3-|----2-------2----|
A||--3------3-----|-3------3-----|-3-------------|-3------3--------|
E||---------------|--------------|---------------------------------|

     C                           F       G       C
 
e||--0------------|-3--------0---|-1--0----------|
B||-----------1---|--------------|------3---1----|
G||-------0-------|------0-------|---------------|
D||-----2-------2-|----2-------2-|----0--------2-|
A||--3------3-----|-3------3-----|-3--------3----|
E||---------------|--------------|------3--------|


| h   Hammer-on
Suggest correction
Give kudos to tab author, rate the tab!
1 2 3 4 5
comments
print report bad tab
guest
You may want to rate the tab now too:
select rating
Wanna post a correction for this tab? Suggest correction