Oops, an error
Loading. Please wait.

Homegrown bass

881 views 15 this week
no commentswrite comment
1 2 3 4 5
2 more votes to show rating
add to favorites
×
Save as Personal and add changes to this tab that will be seen only by you. Learn more ›
×
You can save this tab as Personal to edit and correct it or add notes. All changes will be seen only by you. Learn more »
launch autoscroll
font size
0
reset
guitar tuner
edit
Autoscroll
slow
fast
+/-
esc
set tempo
stop
Zac Brown Band – Homegrown
Tuned Down Half A Step

Its not perfect but i thought i would give a basis for people to work off, any suggestions would be must
appreciated.
Thank You. 

Intro
F#|----------------------------------------------------------------------|
C#|------/5-5-5-5----------------------------/5-5-5-5--------------------|
G#|-3-3-3---------------7---3-5-5-5-5-0-3-3-3--------5-5-5-5-5-5-5-5-5-5-| x2
D#|-----------------7h8---7----------------------------------------------|

Verse
F#|----------------------------------------------------|
C#|----------------------------------------------------|
G#|-----2h3---3--7-7-7-5---5------2h3---3--------5---5-| 
D#|-3-3-----------------------3-3----------0-0-0-------|

F#|-----------------------------------------------------------|
C#|-----------------------------------------------------------|
G#|-----2h3---3--7-7-7-5---5------2-3-3-3-3-3-----2-5-5-5-5-5-| 
D#|-3-3-----------------------3-5-------------3-5-------------|

(I’ve Got Some Good Friends)
F#|-------------------------------------------------------------------------|
C#|-------------------------------------------------------------------------|
G#|-------3-3-3-3-3-3-5-5-5-------------------3-3-3-3-3-3-5-5-5-------------| 
D#|-3-3-3-------------------3-3-3-3-3-3-0-0-0-------------------3-3-3-3-3-3-|

F#|-------------------------------------------------------------------------|
C#|-------------------------------------------5-5-5-5-5-5-------------------|
G#|-3-3-3-------------5-5-5-------------3-3-3-------------5-5-5-------------| 
D#|-------3-3-3-3-3-3-------0-0-0-0-0-0-------------------------3-3-3-3-3-3-|

Chorus (Homegrown)
F#|----------------------------------------------------------------------|
C#|------/5-5-5-5----------------------------/5-5-5-5--------------------|
G#|-3-3-3---------------7---3-5-5-5-5-0-3-3-3--------5-5-5-5-5-5-5-5-5-5-| 
D#|-----------------7h8---7----------------------------------------------|

Intro x1
Verse
Per Chorus (I’ve Got Some Good Friend)
Chorus x2 

Slow Bit , No Bass(Hand Claps)

After The Homegrowns
F#|--------------|      |-----------|
C#|--------------|      |-----------|
G#|-/15-----17---|  x2  |-/15----17-|
D#|-----15----15-|      |-----15----|

(It’s The Way That You Carry)
F#|-------------------------------------|
C#|-------------------------------------|
G#|-------2-2-2-2-2-2-3-3-3-------------| x2 (After this first part i got a little lost with the fills
D#|-0-0-0-------------------3-3-3-3-3-3-|     if im honest so i tryed to simplify it. Any suggestions
                                              would be gratefully appreciated) 
F#|--------------------|-------------------------------------|
C#|--------------------|-------------------------------------|
G#|--7--------------10-|-------2-2-2-2-2-2-3-3-3-------------|
D#|------7------8------|-0-0-0-------------------3-3-3-3-3-3-|

(I’ve Got Everything I Need)
F#|----------------------------------------|
C#|----------------------------------------|
G#|-----3------5--------------3------5-----| x2
D#|-0--------------3------0--------------3-|
Suggest correction
Creating personal tab
Creating personal tab
You can edit any tab online and save it as your Personal.

You can edit, replace or remove any tab part or add personal notes – all changes will be seen only by you.

Personal tabs can be accessed anytime from any device, even offline.
Learn more »
Give kudos to tab author, rate the tab!
1 2 3 4 5
comments
print report bad tab
guest
You may want to rate the tab now too:
select rating
Wanna post a correction for this tab? Suggest correction