Oops, an error
Loading. Please wait.

Island Song Tab

15,951 views 24 this week
no commentswrite comment
1 2 3 4 5
excellent!
x 7
add to favorites
launch autoscroll
font size
0
reset
how to read this tab
guitar tuner
Tab Pro tools
  • play this tab
  • loop segment
  • change instrument
  • show fretboard
  • metronome
Autoscroll
slow
fast
+/-
esc
set tempo
stop
Contributor
Difficulty
novice
INTRO:

----------------------------------------------------------------------------|
-----------13----------13------------------13(s)0---------------------------|
---------------------------15-13--------------------------------------------|
----13(h)15-----13(h)15--------------13h15----------------------------------|
----------------------------------------------------------------------------|
----------------------------------------------------------------------------|


----------------------------------------------------------------------------|
-----------13--13--14--16---(s)14-------------------------------------------|
---------------13--13-------(s)13--13--13-----------------------------------|
----13(h)15----------------------------------13(s)15--13--13----------------|
----------------------------------------------------------------------------|
----------------------------------------------------------------------------|


----------------------------------------------------------------------------|
--------13---13-13-13----------13---13-13-13--------------------------------|
-----------------------13-----------------------15---13(s)0-----------------|
------13--------------------------------------------------------------------|
----------------------------------------------------------------------------|
----------------------------------------------------------------------------|



CHORDS (for verses and chorus)

(Play on the downbeat)
--4-4---------3-3----------1-1----------4-4---------3-3---------------------|
--4-4--(x4)---4-4--(x4)----2-2--(x4)----4-4--(x2)---4-4---(x2)--------------|
--5-5---------3-3----------1-1----------5-5---------3-3---------------------|
----------------------------------------------------------------------------|
----------------------------------------------------------------------------|
----------------------------------------------------------------------------|


BREAK

---1-1---------3-3--------4-4---------1-1--------3-3-------4--3--1--4-------|
---2-2--(x2)---4-4--(x2)--4-4--(x4)---2-2--(x2)--4-4-(x2)--4--4--2--4-------|
---1-1---------3-3--------5-5---------1-1--------3-3-------5--3--1--5-------|
----------------------------------------------------------------------------|
----------------------------------------------------------------------------|
----------------------------------------------------------------------------|


---1-1---------3-3--------4-4-----------1-------3---------------------------|
---2-2--(x2)---4-4--(x2)--4-4--(x4)-----2-------4---------------------------|
---1-1---------3-3--------5-5-----------1-------3---------------------------|
----------------------------------------------------------------------------|
----------------------------------------------------------------------------|
----------------------------------------------------------------------------|
                                       ^        ^
                                       ^        ^
                        (let last two chords ring, then back to chorus)
comments
print report bad tab
I want to post or [tab]
guest
You may want to rate the tab now too:
select rating
Please do not post tabs as comments. Select "correction" instead!