Oops, an error
Loading. Please wait.

Knee Deep Tab

version 1
version 1

Whole song

Interactive

85,712 views 75 this week
no commentswrite comment
1 2 3 4 5
x 11
add to favorites
launch autoscroll
font size
0
reset
how to read this tab
guitar tuner
Autoscroll
slow
fast
+/-
esc
set tempo
stop
Help us to improve Ultimate-Guitar.com Take our survey!
×
Difficulty
Capo
intermediate
1st fret
CAPO 1ST FRET

The Intro goes something like this. There are a few kickers here and there that aren't 
marked on this tab but I'm not very good at tabbing or gp so this is what I could do in 
the limited amt of time I had -- and it's fairly accurate.

   D                                                 G
E  E  E  E  E  E  E  E     E  E  E  E  E  E  E  E
e|--------5-----5-----------|--------5-----5--2-----3--|
B|-----3-----3-----3-----3--|-----3-----3--------3-----|
G|--2-----------------2-----|--2-----------------------|
D|--------------------------|--------------------------|
A|--------------------------|--------------------------|
E|--------------------------|-----------------------3--|

                    D                    A
  E  E  E  E  E  E  E  E     E  E  E  E  E  E  E  E
e|--3--3--3--2--0-----------|--------------------------|
B|-----------------3--3-----|--3-----3-----2--0-----0--|
G|-----------------------2--|-----2-----2--------2-----|
D|--------------------0-----|--------------------------|
A|--------------------------|--------------0-----------|
E|--------------------------|--------------------------|

  D                             D
  E  E  E  E  E  E  E  E     E  E  E  E  E  E  E  E
e|-----2--2--2--2--2--------|-----------5-----5--------|
B|--3--3--3--3--3--3--------|--------3-----3-----3-----|
G|-----2--2--2--2--2--------|-----2-----------------2--|
D|--0-----------------------|-----0--------------------|
A|--------------------0--2--|--4-----------------------|
E|--------------------------|--------------------------|
   D is strummed here
                             G                    D
  E  E  E  E  E  E  E  E     E  E  E  E  E  E  E  E
e|-----------5-----5--2-----|--3--3--3--3--2--0--------|
B|--3-----3-----3--------3--|--------------------3--3--|
G|-----2--------------------|--------------------------|
D|--------------------------|-----------------------0--|
A|--------------------------|--------------------------|
E|--------------------------|--3-----------------------|

           A           G     A           D
  E  E  E  E  E  E  E  E     E  E  E  E  E
e|--------------------------|-----------------||
B|-----3-----2-----2-----3--|--2-----2-----3--||
G|--2-----2-----2-----2-----|-----2-----2-----||
D|--------------------------|--------------0--||
A|-----------0--------------|--0--------------||
E|-----------------------3--|-----------------||

The Chord Progression is the  mainly same throughout the entire song:

D | D | G | G |
D | A | D | D |
D | D | G | G |
Bm| A | G | A | D |
Suggest correction
comments
print report bad tab
guest
You may want to rate the tab now too:
select rating
Wanna post a correction for this tab? Suggest correction