Oops, an error
Loading. Please wait.

Knee Deep Chords

version 6
version 6

Whole song

Interactive

2,407 views 255 this week
no commentswrite comment
1 2 3 4 5
3 more votes to show rating
add to favorites
launch autoscroll
font size
0
reset
transpose
0
reset
simplify chords
display chords
guitar tuner
×
Best way to learn
"Knee Deep"
Autoscroll
slow
fast
+/-
esc
set tempo
stop
Author
Difficulty
intermediate
About this tab version
I found the chords myself and they are different than the others. Was this info helpful? Yes No
[Intro]

   C5/G         F                C            G       C
e|---3-3---5-3-3----1-1---1-0-----------------------------------------|
B|--1-1-1-1---1------1-1-1---1------1-1-1----------------1---1--------|
G|-0-----0--------2-----2-----2------0---0-------0-0-------0----------|
D|---------------3-----------------2------2---------0---2-2-2---------|
A|--------------------------------3--------3----2-2----3---------0-2-3|
E|---------------------------------------------3----------------3-----|

   C5/G         F               Am  G  F  G  C
e|---3-3---5-3-3----1-1---1-0-----0--3--1--3--0-----------------------|
B|--1-1-1-1---1------1-1-1---1----1--3--1--3--1-----------------------|
G|-0-----0--------2-----2-----2---2--0--2--0--0-----------------------|
D|---------------3----------------2--0--3--0--2-----------------------|
A|--------------------------------0--2--3--2--3-----------------------|
E|--------------------------------0--3-----3--0-----------------------|


[Verse]

D
Gonna put the world away for a minute
G
Pretend I don't live in it
G              F          G     C
Sunshine gonna wash my blues away
D
Had sweet love but I lost it
G
She got too close so I fought her
F                      G             F         G     C
Now i'm lost in the world trying to find me a better way


[Chorus]

D
Wishin' I was,

Knee deep in the water somewhere
G
Got the blue sky breeze and it don't seem fair
G                        F                    G       C
Only worry in the world is the tide gonna reach my chair
D
Sunrise there's a fire in the sky
  G
Never been so happy never felt so high
G                       F                     G      C
And I think I might have found me my own kind of paradise


[Verse]

D
Wrote a note said be back in a minute
G
Bought a boat and I sailed of in it
F            G     F        G            C
Don't think anybody's gonna miss me anyway
D
Mind on a permanent vacation 
G
Ocean is my only medication
G                      F            G     C
Wishin' my condition ain't ever gonna go away


[Chorus]

D
Cause now I'm,

Knee deep in the water somewhere
G
Got the blue sky breeze blowing wind through my hair
G                       F                  G          C
Only worry in the world is the tide gonna reach my chair
D
Sunrise there's a fire in the sky 
  G
Never been so happy never felt so high
G                         F                   G         C
And I think I might have found me my own kind of paradise


[Verse]

D                    F
This champagne shore washing over me
G                  D
It's a sweet sweet life
G                    F         
Livin' by the salty sea
G   F   G   F             G     C
One day you could be as lost as me
G                 D
Change your geography
G               F
Maybe you might be


[Chorus]

D
Knee deep in the water somewhere
G
Got the blue sky breeze blowing wind through my hair
G                       F                     G    C
Only worry in the world is the tide gonna reach my chair
D
Sunrise there's a fire in the sky 
  G
Never been so happy never felt so high
G                         F                   G        C
And I think I might have found me my own kind of paradise


[Verse]

G
Come on in the water's nice
F
Find yourself a little slice
G
Grab a backpack of lies
D
You never know until you try
F             G
When you lose yourself
G            F      G
You find the key to paradise
Suggest correction
Give kudos to tab author, rate the tab!
1 2 3 4 5
comments
print report bad tab
guest
You may want to rate the tab now too:
select rating
Wanna post a correction for this tab? Suggest correction