Oops, an error
Loading. Please wait.

Let It Go Tab

version 1
version 1

Whole song

Interactive

18,131 views 33 this week
no commentswrite comment
1 2 3 4 5
excellent!
x 4
add to favorites
launch autoscroll
font size
0
reset
how to read this tab
guitar tuner
Autoscroll
slow
fast
+/-
esc
set tempo
stop
Help us to improve Ultimate-Guitar.com Take our survey!
×
Author
Difficulty
Tuning
intermediate
D# G# C# F# A# D#
Tabbed By: Ricky Backer
Tunning: 1/2 step down


E----------------------------------------------------------------------------|
B--------------3-33--3--1/3--1---------------------------------------3-0h1/3-|
G--------------0-00--4--2/4--2-0--------------2-0----------------0---0-0h2/4-|
D-------0-2p0--------------------2-0---0h2p0------2p0-------------2p0--------|
A-----2-----------------------------------------------2------2---------------|
E-3-3----------------------------------------------------3-3---3-----3-------|



E----------2------|
B-1--1--1--3------|
G-2--0--0--2------|
D-2--0--2--0------|
A-0--2--3---------|
E-----------------|


E----------------------------------------------------------------------------|
B--------------3-33--3--1/3--1---------------------------------------3-0h1/3-|
G--------------0-00--4--2/4--2-0--------------2-0----------------0---0-0h2/4-|
D-------0-2p0--------------------2-0---0h2p0------2p0-------------2p0--------|
A-----2-----------------------------------------------2------2---------------|
E-3-3----------------------------------------------------3-3---3-----3-------|

E-------------3---|
B-1--1--1--3--3---|
G-2--0--2--2--0---|
D-2--0--2--0--0---|
A-0--2--0--0--2---|
E----------2--3---|

G                                            C              G
Spent the night with a friend of mine, and a handle of good wiskey
G                                          C                G
We picked guitars and talked about how the glory days went missin'
C                                  G     D/F#        Em
It didn't take to long to find the truth inside that bottle
C              G               D               G
Cast a sea, so long ago, was a message from my father


              C                                         G
You keep your heart above your head, and your eyes wide open
        G                                   D
So this world can't find a way to leave you cold
                Em           D/F#            Em-D/F#-G
And know you're not the only ship out on the ocean
(walk up to) C                     D
Save your strength for things that you can change
C                     D
Forgive the one's you can't
N.C.
You gotta let it go


E-------------------------------------------------------------------|
B-------------------------------------------------------------------|
G--------------------------------0h2h4/5-0--4-5-4-0-----------------|
D--------------------2-0---0-2h4--------------------0-2-0-----------|
A-----2--3--2----2-3---------------------------------------3-0-2----|
E--3-----------3----------------------------------------------------|


G                             C                G
Looking back now on my life I can't say I regret it
G                                      C             G
And all the places I ended up, not the way Ma woulda had it
C                                        G - D/F# - Em
But you only get once chance in life to leave your mark upon it
             C             G                    D                  G
So when that pony he comes riding by you better set your sweet ass on it

(This is the main riff w/ one harmony)

E----------------2-3-- E-------------0-2-5-7-|
B----------0-1-3------ B--0-000--1-3---------|
G--0-000-2------------ G---------------------|
D--------------------- D---------------------|
A--------------------- A---------------------|
E--------------------- E---------------------|


              C                                         G
You keep your heart above your head, and your eyes wide open
        G                                   D
So this world can't find a way to leave you cold
                Em           D/F#            Em-D/F#-G
And know you're not the only ship out on the ocean
(walk up to) C                     D
Save your strength for things that you can change
C                     D
Forgive the one's you can't
N.C.
You gotta let it go

E-------------------------------------------------------------------|
B-------------------------------------------------------------------|
G--------------------------------0h2h4/5-0--4-5-4-0-----------------|
D--------------------2-0---0-2h4--------------------0-2-0-----------|
A-----2--3--2----2-3---------------------------------------3-0-2----|
E--3-----------3----------------------------------------------------|

(Here's a little more into the fingerpicking)

E---------------------0--------0h2---0-----------3--------0----------0h2-0--|
B-----------------0---1----1---3-------3--0----3-3--------1---1------3----3-|
G--0----0-0--0--2--------0--0-------------0----0----------------0-----------|
D-----0------------------------0---0---------0---------0-------------0------|
A---------------------3-3--------------------------0h2----3-3-----3---------|
E--3-3---3---3----------------------------3-3----3--------------------------|

E-0--------------------0-----------3------------0--------0-0----------------3-|
B-0--------------------1---1-0--0----0--3-------0----0---1-0--3------------0--|
G-0--------0-2-0----------------0-------2---2-------0-0-------2---2p0-0---0-0-|
D-----2-0-2------2-0-----------------------0-0----------------0-0-------------|
A----------------------3-3-------------------------------3-3------------------|
E-0--0-0-0--0-------------------3-3-----2-2-----0-0----------------------3----|

(Fingerpicking Progression)

Like a sweet sunset in Georgia let it go
and like the fear that grabs ahold ya let it go
let it go
let it go


             C                                         G
You keep your heart above your head, and your eyes wide open
        G                                   D
So this world can't find a way to leave you cold
                Em           D/F#            Em-D/F#-G
And know you're not the only ship out on the ocean
(walk up to) C                     D
Save your strength for things that you can change
C                     D
Forgive the one's you can't
N.C.
You gotta let it go

E-----------------------------------------------------------------------|
B-----------------------------------------------------------------------|
G--------------------------------0h2h4/5-0--4-5-4-0-------0-2-4-5-0-----|
D--------------------2-0---0-2h4--------------------0-2-4---------------|
A-----2--3--2---2-3-----------------------------------------------------|
E--3----------3---------------------------------------------------------|

E----------------------------------------------------------------------------|
B----------------------------------------------------------------------------|
G------00-------00-------00------00------00-----4p0---5p0---7p0--5p0--4p0----|
D--4/5-----4/5------4/5-----4/5-----4/5------5------5-----5-----5----5----5--|
A----------------------------------------------------------------------------|
E----------------------------------------------------------------------------|

End Riff:

E--/3-0---0-----------------3-----|
B-------3-----3-------------3-----|
G-------------2brp0---------0-----|
D--------------------2-0----0-----|
A---------------------------2-----|
E---------------------------3-----|

Thank you, and I had a little help!
Suggest correction
What's this?
You can suggest a correction to this tab. Community and Mods will review your correction and vote to approve or reject it.
comments
print report bad tab
guest
You may want to rate the tab now too:
select rating
Please do not post tabs as comments. Select "correction" instead!