Oops, an error
Loading. Please wait.

My Old Man intro tab

version 2
version 2

Intro

  • Fingerstyle picking for the intro(I wrote down thi... Show more
  • This tab is based on Zac's live solo performance i... Show more

Whole song

  • Added bridge and the rest of the song.

Interactive

442 views 21 this week
no commentswrite comment
1 2 3 4 5
2 more votes to show rating
add to favorites
×
Save as Personal and add changes to this tab that will be seen only by you. Learn more ›
×
You can save this tab as Personal to edit and correct it or add notes. All changes will be seen only by you. Learn more »
launch autoscroll
font size
0
reset
how to read this tab
guitar tuner
edit
Autoscroll
slow
fast
+/-
esc
set tempo
stop
My Old Man
Zac Brown Band
Capo 4
Tab by Jerry Rawls

[Intro]

   C                                   Am/F#
e|-3p0-------------|---0-------------|-3p0-------------|---0-------------|
B|---------3p1---3-|-----------1-----|---------3p1---3-|-----------1-----|
G|-------0-------0-|-------0-------0-|-------2-------2-|-------2-------2-|
D|-----2-------2---|-----2-------2---|-----2-------2---|-----2-------2---|
A|-3-------3-------|-3-------3-------|-----------------|-----------------|
E|-----------------|-----------------|-2-------2-------|-2-------2-------|
  1 + 2 + 3 + 4 +   1 + 2 + 3 + 4 +   1 + 2 + 3 + 4 +   1 + 2 + 3 + 4 +  


   Fmaj7                               G
e|-3p0-------------|---0-------------|-----------------|-----------------|
B|---------3p1---3-|-----------1-----|-0---------1-----|-3---------------|
G|-------2-------2-|-------2-------2-|-------0-------0-|-----------------|
D|-----3-------3---|-----3-------3---|-----0-------0---|-----------------|
A|-----------------|-----------------|-----------------|-----------------|
E|-1-------1-------|-1-------1-------|-3-------3-------|-3---------------|
  1 + 2 + 3 + 4 +   1 + 2 + 3 + 4 +   1 + 2 + 3 + 4 +   1 + 2 + 3 + 4 +  


The Am/F# & Fmaj7 chords both involve using your thumb 
to fret notes on the low E string, marked "T"

        C                   Am/F#                Fmaj7                 G
 x--------0-----0     ---0-----------0     ---x-----------0     ------0--0--0---
 |  |  |  |  |  |     |  |  |  |  |  |     |  |  |  |  |  |     |  |  |  |  |  |
 |__|__|__|__1__|     |__|__|__|__1__|     T__|__|__|__1__|     |__|__|__|__|__|
 |  |  |  |  |  |     |  |  |  |  |  |     |  |  |  |  |  |     |  |  |  |  |  |
 |__|__2__|__|__|     T__|__2__3__|__|     |__|__|__2__|__|     |__2__|__|__|__|
 |  |  |  |  |  |     |  |  |  |  |  |     |  |  |  |  |  |     |  |  |  |  |  |
 |__3__|__|__|__|     |__|__|__|__|__|     |__|__3__|__|__|     3__|__|__|__|__4
Suggest correction
Creating personal tab
Creating personal tab
You can edit any tab online and save it as your Personal.

You can edit, replace or remove any tab part or add personal notes – all changes will be seen only by you.

Personal tabs can be accessed anytime from any device, even offline.
Learn more »
Give kudos to tab author, rate the tab!
1 2 3 4 5
comments
print report bad tab
guest
You may want to rate the tab now too:
select rating
Wanna post a correction for this tab? Suggest correction