Oops, an error
Loading. Please wait.

My Old Man chords

version 3
version 3

Whole song

  • In the intro when he picks the low F he uses his t... Show more
  • Full and detailed fingerstyle parts with RH fingering guide.

Interactive

460 views 21 this week
no commentswrite comment
1 2 3 4 5
x 4
add to favorites
×
Save as Personal and add changes to this tab that will be seen only by you. Learn more ›
×
You can save this tab as Personal to edit and correct it or add notes. All changes will be seen only by you. Learn more »
launch autoscroll
font size
0
reset
transpose
0
reset
simplify chords
display chords
guitar tuner
edit
Autoscroll
slow
fast
+/-
esc
set tempo
stop
About this tab version
Full and detailed fingerstyle parts with RH fingering guide. Was this info helpful? Yes No
Strumming
There is no strumming pattern for this song yet. and get +5 IQ
Zac Brown Band - My Old Man
Capo 4th

Intro
   C                               |Am/E                            |
e|-3p0---------------0-------------|3p0---------------0-------------|
B|---------3p1---3-----------1-----|--------3p1---3-----------1-----|
G|-------0---------------0---------|------2---------------2---------|
D|-----2-------2-------2-------2---|2---2---2---2---2---2---2---0---|
A|-3-------3-------3-------3-------|--------------------------------|
E|---------------------------------|--------------------------------|
   m   T i m   T m T m T i T m T    (simili)
   T       T

  Fmaj7                            |G              G/B              ||
  -3p0---------------0-------------|--------------------------------|
  ---------3p1---3-----------1-----|0---------1-----3---------------|
  -------2---------------2-----0---|------0-------0-----------------|
  -3---3---3---3---3---3---3-------|----0-------0-------------------|
  ---------------------------------|----------------2---------------|
  ---------------------------------|3-------3-----------------------|


Verse 1
           C        F             G
 He was a giant and I was just a kid
                C          F            G
 I was always trying to do everything he did
 Am                          C         F
 I can still remember every lesson he taught me
   Fm                        G              C
 Growing up learning how to be like my old man


Interlude   (C)      |Am/E     |Fmaj7    |G    G/B  ||



Verse 2
           C        F                  G
 He was a lion, we were our father's pride
              C             F                G
 But I was defiant when he made me walk the line
 Am                              C          F
 He knew how to lift me up and when to let me fall
  Fm                             G           C
 Looking back, he always had a plan, my old man


Chorus
         F                           C              G
 My old man, feel the callus on his hands and dusty overalls
         F          Fm            C
 My old man, now I finally understand
           G                        C
 I have a lot to learn from my old man


Interlude   (C)      |Am/E     |Fmaj7    |G    G/B  ||

Verse 2
            C            F        G
 Now I'm a giant, got a son of my own
               C          F           G
 He's always trying to go everywhere I go
 Am                             C       F
 Do the best I can to raise him up the right way
 Fm                               G               C
 Hoping that he someday wants to be like his old man


Interlude
           |Am              G               |F                           G   |
  ---------|--------------------------------|--------------------------------|
  ---------|0h1-----1p0---0---------------0-|----------1-----1-------1---3---|
  ---------|------2---------------0-2p0-----|2-----2-------2-2-----2-2---4---|
  ---------|----2-------0-------0-------0---|----3-------3-------3-----------|
  -3---2---|0-------0-----------------------|--------------------------------|
  ---------|----------------3-------3-------|1-------1-------1-------1---3---|

  Am               G               |F                       F   G   |
  -0-------0--1--0---------------0-|--------------------------------|
  -----------------3-------3--1----|1---------1-----1-------1---3---|
  -------2---------------0---------|2-----2-------2-2-----2-2---4---|
  -----2---------------0-----------|----3-------3-------3-----------|
  -0-------0-----------------------|--------------------------------|
  -----------------3-------3-------|1-------1-------1-------1---3---|

  Am               G               |F                           G   |
  ---------------------------------|--------------------------------|
  -0h1-----1p0---0---------------0-|----------1-----1-------1---3---|
  -------2---------------0-2p0-----|2-----2-------2-2-----2-2---4---|
  -----2-------0-------0-------0---|----3-------3-------3-----------|
  -0-------0-----------------------|--------------------------------|
  -----------------3-------3-------|1-------1-------1-------1---3---|

  Am               G               |F                               ||
  -0-------0--1--0---------0-------|--------------------------------|
  -----------------3----------3--0-|1---------1-----1---------1-----|
  -------2---------------0---------|2-----2-------2-2-----2-------2-|
  -----2---------------0-----------|----3-------3-------3-------3---|
  -0-------0-----------------------|--------------------------------|
  -----------------3-------3-------|1-------1-------1-------1-------|


Chorus
         F                               C             G
 My old man, I know one day we'll meet again, as he's looking down
         F                Fm            C
 My old man, I hope he's proud of who I am
                G                        C
 I'm trying to fill the boots of my old man



Outro   (C)    |Am    |F     |C

            
            
Suggest correction
Creating personal tab
Creating personal tab
You can edit any tab online and save it as your Personal.

You can edit, replace or remove any tab part or add personal notes – all changes will be seen only by you.

Personal tabs can be accessed anytime from any device, even offline.
Learn more »
comments
print report bad tab
guest
You may want to rate the tab now too:
select rating
Wanna post a correction for this tab? Suggest correction