Oops, an error
Loading. Please wait.

Where The Boat Leaves From Tab

version 1
version 1

Interactive

7,107 views 1 this week
2 commentsread comments
1 2 3 4 5
1 last vote to show rating
add to favorites
launch autoscroll
font size
0
reset
how to read this tab
guitar tuner
Autoscroll
slow
fast
+/-
esc
set tempo
stop
Help us to improve Ultimate-Guitar.com Take our survey!
×
Difficulty
Capo
novice
2nd fret
This is as close as i could get and sounded right when i played it with the song and 
is just one number or note missing but wasnt sure what it was
      Capo 2 Fret
PLEASE RATE


-------------------------------------------------|
-------------------------------------------------|
-------------------------------------------------|
----4-4-4--2--2-4--4-4--2--2-4-4-4-2--2-6-6-6----|
-------------------------------------------------|
-------------------------------------------------|

-------------------------------------------------|
-------------------------------------------------|
-------------------------------------------------|
--4-4-2-2-6-6-6-6-6-4-4-4-2-2-6-6-6-2-2-6-6------|
-------------------------------------------------|
-------------------------------------------------|

-------------------------------------------------|
-------------------------------------------------|
-------------------------------------------------|
-------------------------------------------------|
--4-4-4-2-2--------------------------------------|
-------------------------------------------------|
Suggest correction
Give kudos to tab author, rate the tab!
1 2 3 4 5
comments
print report bad tab
2 comments total.
0 reply
ISS5731 10 Aug 17, 2010 07:10 PM

Im not sure if its right yet, but why would you need a capo if your not using open strings?

0 reply
souporman98 10 Oct 13, 2011 11:54 PM

i was playing around and found that this works better
e------------------------------------------
B------------------------------------------
G------------------------------------------
D-----------------------------2---------2--
A----------2-----2--0-0-0-0-4---0-0-0-4----
E-0-0-0-0-4-0-0-0--------------------------

guest
You may want to rate the tab now too:
select rating
Wanna post a correction for this tab? Suggest correction