Oops, an error
Loading. Please wait.

Ladies Choice Bass Tab

5,008 views 18 this week
no commentswrite comment
1 2 3 4 5
2 more votes to show rating
add to favorites
launch autoscroll
font size
0
reset
guitar tuner
Autoscroll
slow
fast
+/-
esc
set tempo
stop
Help us to improve Ultimate-Guitar.com Take our survey!
×
Author
Difficulty
Tuning
novice
D A D G B E
http://youtube.com/watch?v=IRS160tWaxU
------------------------------------------------------------
	"Ladies' Choice" - Zac Efron (Hairspray)
------------------------------------------------------------
Tabbed by: Justin RiRaY
www.myspace.com/RiRaY  www.myspace.com/NeverYourStar

Tuning: Drop D

     INTRO/CHORUS
G|----------------------------------------------------------|
D|-----------0------------0------------0-------------12\0---|
A|-------0-2----------0-2----------0-2----------------------|
D|-0-4-5--------0-4-5--------0-4-5--------7-7-5-6-7---------|

     VERSE
G|----------------------------------------------------------|
D|-----------0------------0------------0------------0-------|
A|-------0-2----------0-2----------0-2----------0-2---------|
D|-0-4-5--------0-4-5--------0-4-5--------0-4-5-------------|
 
G|-----------0-----------0----------------------------------|
D|-------0-3---------0-3--------------0------------0--------|
A|---0-2---------0-2--------------0-2----------0-2----------|
D|-5-----------5------------0-4-5--------0-4-5--------------|
 
G|---------0-3------------0---------------------------------|
D|-----0-3------------0-3-----------------------------------|
A|-0-3------------0-2---------------------------------------|
E|--------------5-------------------------------------------|
 
     Pre-CHORUS
G|----------------------------------------------------------|
D|-----------0------------2------------0-------------12\0---|
A|-------0-2----------0-4----------0-2----------------------|
D|-0-4-5--------0-4-5--------0-4-5--------7-7-5-6-7---------|

     BRIDGE
G|--------------------------------2-0h1h2--------22-2-------|
D|-------2--------------------------------------------------|
A|-0-00-0-0-00-0-00-0-00-0-0-00-0---------0-00-0------------|
D|----------------------------------------------------------|
 
     VERSE (key change)
G|----------------------------------------------------------|
D|-----------1------------1-----------1---------------------|
A|-------1-3----------1-3---------1-3-----------------------|
D|-1-5-6--------1-5-6-------1-5-6-------8-8-6-7-8--13\1-----|
 
G|----------------------------------------------------------|
D|-----------1------------3------------1--------------------|
A|-------1-3----------1-5----------1-3----------------------|
D|-1-5-6--------1-5-6--------1-5-6--------8-6-6-7-8---------|
 
     CHORUS/OUTRO (key change)
G|----------------------------------------------------------|
D|-----------1------------1-----------1---------------------|
A|-------1-3----------1-3---------1-3-----------------------|
D|-1-5-6--------1-5-6-------1-5-6-------8-8-6-7-8--13\1-----|
Suggest correction
Give kudos to tab author, rate the tab!
1 2 3 4 5
comments
print report bad tab
guest
You may want to rate the tab now too:
select rating
Wanna post a correction for this tab? Suggest correction