Oops, an error
Loading. Please wait.

Zagorski Tarzan Chords

118 views 3 this week
no commentswrite comment
1 2 3 4 5
please rate
add to favorites
launch autoscroll
font size
0
reset
transpose
0
reset
simplify chords
display chords
guitar tuner
Tab Pro tools
  • play this tab
  • loop segment
  • change instrument
  • show fretboard
  • metronome
×
Best way to learn
"Zagorski Tarzan"
Autoscroll
slow
fast
+/-
esc
set tempo
stop
Contributor
Zadruga - ZAGORSKI TARZAN


bas uvod:
  C         F        G         C                  F        G        G7
------------------------------------------------------------------------------|
------------------------------------------------------------------------------|
-------------------------------------0------------------------------0---------|
--------0-2-----------------------2-----------0-2----------------0-----3--0---|
--3---3--------0--3--------0-2-3--------3---3--------0--3-----2---------------|
------------1--------3---3------------------------1--------3------------------|

  C         F        G         C                  F        G         C
------------------------------------------------------------------------------|
------------------------------------------------------------------------------|
-------------------------------------0-------------------------------------0--|
--------0-2-----------------------2-----------0-2-3---------------------2-----|
--3---3--------0--3--------0-2-3--------3---3--------3--0--------0-2-3--------|
------------1--------3---3---------------------------------3---3--------------|

 C           F        G     C
 Po huste sam isel kak zejen pes
 C     F      G
 Same je listje sumele
 C       F     G        C
 Same je veter fuckal po granju
 C       F      G
 Same je listje sumele

 C5          F5       G5    C5
 Po huste sam isel kak zejen pes
 C5     F5     G5
 Same je listje sumele
 C5      F5    G5    C5
 Same je veter fuckal po granju
 C5      F5     G5
 Same je listje sumele

 A5              C5   D5
 Tad napravil korake sam -dva, tri
 A5              C5           D5
 I dok veter mi je rekel presli su ti svi
 A5            G5 C5
 Cul sam kak nehci ide
 A5          G5 F5
 I pital kdoj si ti

 A5            G5 C5
 Cul sam kak nehci ide
 A5          G5 F5
 I pital kdoj si ti
 F5  F#5 G5
 Kdoj si ti

REF:
 N.C.    C5              F5
 Ja sam Hrzan, zagorski Tarzan
      G5            C5
 Teri iscem po huste ljude
                     F5
 Teri navek ti veli "ziveli"
    G5          C5
 I "hodi, bume si spili" (X 2)

   C5             F5                G5                  C5
 -----------------------------------------------------------------------------|
 -----------------------------------------------------------------------------|
 -----------------------------------------------------------------------------|
 -----------5----5------------7----7----------------8-----8------------5----5-|
 -7-7--7--7----7----8-8--8--8----8----10-10--10--10----10----7-7--7--7----7---|
 -----------------------------------------------------------------------------|

   C5             F5                G5                  C5
 -----------------------------------------------------------------------------|
 -----------------------------------------------------------------------------|
 -----------------------------------------------------------------------------|
 -----------5----5------------7----7----------------8-----8------------5----5-|
 -7-7--7--7----7----8-8--8--8----8----10-10--10--10----10----7-7--7--7----7---|
 -----------------------------------------------------------------------------|

   C5              F5              G5               C5
 --/12----12----12----/13----13----13----/15----15----15---19b20~~-|
 -----13----13----13-----13----13----13-----15----15----16---------|
 -------12----12-----------14----14-----------16----16-------------|
 ------------------------------------------------------------------|
 ------------------------------------------------------------------|
 ------------------------------------------------------------------|

C5                     F5                G5          C5
--------------------------------------------------------------------------------------|
--------------------------------------------------------------------------------------|
7b8--7--5----5------------------------------------------------------------------------|
----------7--------------5----5------------7----7---------------8-----8-----------5---|
-----------------7--7--7----7----8-8--8--8----8---10-10--10--10----10---7-7--7--7---7-|
--------------------------------------------------------------------------------------|

 A5            E   F5
 Kak da sam svetle videl v mraku

 G5             C5    B  G5
 On mi je rekel dobru rec

 A5           E   F5
 Kak da sam kruha dobil lacen

 G5         C5
 Kak da vise nisam pes


REF (X 2)

 (ziveli)
comments
We did not receive enough feedback on this tab! Please rate:
print report bad tab
1 2 3 4 5
I want to post or [tab]
guest
You may want to rate the tab now too:
select rating
Please do not post tabs as comments. Select "correction" instead!