Oops, an error
Loading. Please wait.

Je Te Promets Tab

by Zaho
11,199 views 9 this week
no commentswrite comment
1 2 3 4 5
excellent!
x 3
add to favorites
launch autoscroll
font size
0
reset
how to read this tab
guitar tuner
Autoscroll
slow
fast
+/-
esc
set tempo
stop
Help us to improve Ultimate-Guitar.com Take our survey!
×
Author
Difficulty
novice
Zaho
Je Te Promets

This is my first tab but I think it sounds right like this. Feel free to correct 
me when you think it's needed. I hope you think it's helpful.

~  - Let ring
s  - Slide to required note
h  - Hammer on
p  - Pull off

Intro:
e|--------------0h1-|---------------| 
b|------0h1---3-----|-----0h1-0-----|
g|----2-------------|---2-------2---|
d|----------0~------|-------------2~|
a|-0~---------------|-0~------------|
e|------------------|---------------|

e|-------------------0h1-|--------------| 
b|-----0h1--------3------|------0h1-0---|
g|---2-------2-----------|----2-------2~|
d|--------------0~-------|--------------|
a|-0~------0-------------|-0~-----------|
e|-----------------------|--------------|

Verse:
  Am            Dm            Am            Am   
e|-------0-----|-------1-----|-------0-----|-------0-----|
b|-----1-----1-|-----3-----3-|-----1-----1-|-----1-----1-|
g|---2-----2---|---2-----2---|---2-----2---|---2-----2---|
d|-------------|-0-----------|-------------|-------------|
a|-0-----------|-------------|-0-----------|-0-----------|
e|-------------|-------------|-------------|-------------|

  Am            F             C             Gm  
e|-------0-----|-------0-----|-------0-----|-------3-----|
b|-----1-----1-|-----1-----1-|-----1-----1-|-----3-----3-|
g|---2-----2---|---2-----2---|---0-----0---|---0-----0---|
d|-------------|-3-----------|-------------|-------------|
a|-0-----------|-------------|-3-----------|-------------|
e|-------------|-------------|-------------|-3-----------|

  Am            Dm            Am            Am   
e|-------0-----|-------1-----|-------0-----|-------------|
b|-----1-----1-|-----3-----3-|-----1-----1-|-------------|
g|---2-----2---|---2-----2---|---2-----2---|-------------|
d|-------------|-0-----------|-------------|-------------|
a|-0-----------|-------------|-0-----------|-0~----------|
e|-------------|-------------|-------------|-------------|

  Am            Em            Am   
e|-------0-----|-------0-----|-----------------|
b|-----1-----1-|-----0-----0-|-----1---1---0-1~|
g|---2-----2---|---0-----0---|---2---2---2-----|
d|-------------|-------------|-----------------|
a|-0-----------|-------------|-0---------------|
e|-------------|-0-----------|-----------------|


Chorus:
  Dm            C             Gm            Gm   
e|-------1-----|-------0-----|-------3-----|-------3-----| 
b|-----3-----3-|-----1-----1-|-----3-----3-|-----3-----3-|  
g|---2-----2---|---0-----0---|---0-----0---|---0-----0---| Repeat 3X  
d|-0-----------|-------------|-------------|-------------|   
a|-------------|-3-----------|-------------|-------------|   
e|-------------|-------------|-3-----------|-3-----------| 

  Dm            Em            Am              
e|-------1-----|-------0-----|-----------------|
b|-----3-----3-|-----0-----0-|-----1---1---1-0~|
g|---2-----2---|---0-----0---|---2---2---2-----|
d|-0-----------|-------------|-----------------|
a|-------------|-------------|-0---------------|
e|-------------|-0-----------|-----------------|

Mid Part:
e|--------------0h1-|---------------| 
b|------0h1---3-----|-----0h1-0-----|
g|----2-------------|---2-------2---|
d|----------0~------|-------------2~|
a|-0~---------------|-0~------------|
e|------------------|---------------|

e|-------------------0h1-|--------------| 
b|-----0h1--------3------|------0h1-0---|
g|---2-------2-----------|----2-------2~|
d|--------------0~-------|--------------|
a|-0~------0-------------|-0~-----------|
e|-----------------------|--------------|

Verse:
  Am            Dm            Am            Am   
e|-------0-----|-------1-----|-------0-----|-------0-----|
b|-----1-----1-|-----3-----3-|-----1-----1-|-----1-----1-|
g|---2-----2---|---2-----2---|---2-----2---|---2-----2---|
d|-------------|-0-----------|-------------|-------------|
a|-0-----------|-------------|-0-----------|-0-----------|
e|-------------|-------------|-------------|-------------|

  Am            F             C             Gm  
e|-------0-----|-------0-----|-------0-----|-------3-----|
b|-----1-----1-|-----1-----1-|-----1-----1-|-----3-----3-|
g|---2-----2---|---2-----2---|---0-----0---|---0-----0---|
d|-------------|-3-----------|-------------|-------------|
a|-0-----------|-------------|-3-----------|-------------|
e|-------------|-------------|-------------|-3-----------|

  Am            Dm            Am            Am   
e|-------0-----|-------1-----|-------0-----|-------------|
b|-----1-----1-|-----3-----3-|-----1-----1-|-------------|
g|---2-----2---|---2-----2---|---2-----2---|-------------|
d|-------------|-0-----------|-------------|-------------|
a|-0-----------|-------------|-0-----------|-0~----------|
e|-------------|-------------|-------------|-------------|

  Am            Em            Am   
e|-------0-----|-------0-----|-----------------|
b|-----1-----1-|-----0-----0-|-----1---1---0-1~|
g|---2-----2---|---0-----0---|---2---2---2-----|
d|-------------|-------------|-----------------|
a|-0-----------|-------------|-0---------------|
e|-------------|-0-----------|-----------------|

Chorus:
  Dm            C               Gm            Gm   
e|-------1-----|-----0-0-0---0-|-------3-----|-------3-----| 
b|-----3-----3-|---------------|-----3-----3-|-----3-----3-|  
g|---2-----2---|---0-------0---|---0-----0---|---0-----0---| Repeat 3X  
d|-0-----------|---------------|-------------|-------------|   
a|-------------|-3-------------|-------------|-------------|   
e|-------------|---------------|-3-----------|-3-----------| 

  Dm            Em            Am              
e|-------1-----|-------0-----|-----------------|
b|-----3-----3-|-----0-----0-|-----1---1---1-0~|
g|---2-----2---|---0-----0---|---2---2---2-----|
d|-0-----------|-------------|-----------------|
a|-------------|-------------|-0---------------|
e|-------------|-0-----------|-----------------|

Bridge:
  Dm/F          Am7           Dm            Dm   
e|-------1-----|-------0-----|-------1-----|-------1-----|
b|-----3-----3-|-----1-----1-|-----3-----3-|-----3-----3-|
g|---2-----2---|---0-----0---|---2-----2---|---2-----2---|  Repeat 4X
d|-3-----------|-2-----------|-0-----------|-0-----------|
a|-------------|-------------|-------------|-------------|
e|-------------|-------------|-------------|-------------|

                               
e|-------3-1~-|-------6-3~-|
b|-----3------|-----3------|
g|---2--------|---0--------|
d|-3----------|-2----------|
a|------------|------------|
e|------------|------------|

Chorus (Repeat 2X):
  Dm            C                Gm            Gm   
e|-------1-----|-----0-0-0---0--|-------3-----|-------3-----| 
b|-----3-----3-|----------------|-----3-----3-|-----3-----3-|  
g|---2-----2---|---0-------0----|---0-----0---|---0-----0---| Repeat 3X  
d|-0-----------|----------------|-------------|-------------|   
a|-------------|-3--------------|-------------|-------------|   
e|-------------|----------------|-3-----------|-3-----------| 

  Dm            Em            Am               
e|-------1-----|-------0-----|-----------------|
b|-----3-----3-|-----0-----0-|-----1---1---1-0~|
g|---2-----2---|---0-----0---|---2---2---2-----|
d|-0-----------|-------------|-----------------|
a|-------------|-------------|-0---------------|
e|-------------|-0-----------|-----------------|

Outro (Repeat 2X):
e|--------------0h1-|---------------| 
b|------0h1---3-----|-----0h1-0-----|
g|----2-------------|---2-------2---|
d|----------0~------|-------------2~|
a|-0~---------------|-0~------------|
e|------------------|---------------|

e|-------------------0h1-|--------------| 
b|-----0h1--------3------|------0h1-0---|
g|---2-------2-----------|----2-------2~|
d|--------------0~-------|--------------|
a|-0~------0-------------|-0~-----------|
e|-----------------------|--------------|

Lyrics:
T'aimerais que je te dise que j'taimerais toute ma vie
T'aimerais que j'te promette toutes mes nuits jusqu'à l'infini
T'aimerais que je te suive à jamais sans faire de bruit
Et que je comprenne tout ceci sans que tu le dises

REFRAIN :
Mais je ne pourrais te dire ce que je n'sais pas
Et je ne pourrais te donner ce que je n'ai pas
Et je ne pourrais te fuir même si tout nous sépare
Tout ce que je te promet c'est un nouveau départ

J'aimerais que le temps s'arrête lorsqu'on se parle
Et qu'apparaisse en plein jour dans le ciel 1 milliard d'étoile
Pour que je fasse un vœux sans que mon soleil se voile
Et qu'on puisse être a nouveaux deux sans ce faire se mal

REFRAIN :
Mais je ne pourrais te dire se que je n'sais pas
Et je ne pourrais te donner ce que je n'ai pas
Et je ne pourrais te fuir même si tout nous sépare
Tout ce que je te promet c'est un nouveau départ

Et j'aimerais me cacher sous tes paupières
Pour que tu puisses me voir quand tu fais tes prières
Et j'aimerais les casser toutes ces lumières
Celles qui t'empechent de voir un peu plus clair


REFRAIN :
Mais je ne pourrais te dire se que je n'sais pas
Et je ne pourrais te donner ce que je n'ai pas
Et je ne pourrais te fuir même si tout nous sépare
Tout ce que je te promets c'est un nouveau départ
Suggest correction
Give kudos to tab author, rate the tab!
1 2 3 4 5
comments
print report bad tab
guest
You may want to rate the tab now too:
select rating
Wanna post a correction for this tab? Suggest correction