Oops, an error
Loading. Please wait.

Whats The World Come To Chords

482 views 1 this week
no commentswrite comment
1 2 3 4 5
accurate
x 3
add to favorites
launch autoscroll
font size
0
reset
transpose
0
reset
simplify chords
display chords
guitar tuner
Tab Pro tools
  • play this tab
  • loop segment
  • change instrument
  • show fretboard
  • metronome
×
Best way to learn
"Whats The World Come To"
Autoscroll
slow
fast
+/-
esc
set tempo
stop
Contributor
Zak Belica (& Sarah Ravenscroft) - What's The World Come To
from the video game: Sin Episodes - Emergence
tabbed by: badjokegonewors-

This song has been stuck in my head for years. The video game is not that
overwhelming, but the theme song is pretty cool. A pity nobody knows it. So
this is my acoustic interpretation of the song. As there are no acoustic
guitars in the song, just distorted guitars and synths, i tried to
incorporate the elements into chords that obviously are not played like that
in the original version, but I think it sounds pretty good that way. Not
really sure if I got all the chord names right, but I tried my best... I
wrote down a simplified version of each chord, if the chords are too fancy
for you. ;)

Chords:
|CHORD     |(EADGBe) ||SIMPLIFIED |
|=================================|
|Bm        | X24432  ||Bm         |
|Asus2     | X02200  ||A          |
|Em        | 022000  ||Em         |
|F#7       | 242352* ||F#         | *OR X98970 (choose whatever you like, you can also play F#11)
|G         | 320003  ||G          |
|F#11      | 244300  ||F#         |
|Dmaj7     | X54670**||D          | **OR X54222
|Emadd9    | 024000  ||Em         |
|Gmaj7b5   | 324422  ||Bm         |
|Asus2maj7 | 4X2200  ||G#/A 4776XX|
|=================================|

Solo Guitar:
e|--------------------------------------------2-32--3--5--7--9--10--9--5--7--2--3-|
B|--------------------------------------3-52-3-----0--0--0--0--0---0--0--0--0--0--|
G|-----4--764-4----------------------4--------------------------------------------|
D|---4-------7---2-4-5-4--42--------4---------------------------------------------|
A|-2------------------------545---2-----------------------------------------------|
E|--------------------------------------------------------------------------------|

e|--7--9--10--9--14--12------------------------14-12~~----------------------------|
B|-0--0--0---0--0---0---12--15-14-12-10--10-12------------------------------------|
G|--------------------------------------------------------------------------------|
D|--------------------------------------------------------------------------------|
A|--------------------------------------------------------------------------------|
E|--------------------------------------------------------------------------------|

Verse 1:
                 Bm      Asus2
What's the world come to
                  Em                   F#7
When everything's going the way of the gun
                 Bm      Asus2
What's the world come to
             Em                      F#7
If life is a shadow of what has been done

Chorus:
              G
I want you to know
              F#11
Don't take it slow
            Bm
Just come undone
                      Dmaj7
And the sin will take hold
                G
I can't hold it back
                 F#11
It's too much to ask
             Bm
You know the way
                 Asus2
You're up to the task
                 Emadd9
But please don't ever say

Verse 2:
                 Bm      Asus2
What's the world come to
                 Em                    F#7
When bullets are all that you can understand
                 Bm      Asus2
What's the world come to
                Em                           F#7
When all that I touch will leave blood on my hands

[repeat Chorus]

Bridge:
                 G       Gmaj7b5   Asus2   Asus2maj7
What's the world come to
              G
What's it all come to
           Bm
Nothing to see through
              Asus2
It's all been spoken
              Asus2maj7
Shattered and broken
           Bm
Give it to me

Solo:
[Verse-Chords] (Bm) Asus2 Em F#7 (x2)
[Chorus-Chords] G F#11 Bm Dmaj7 - G F#11 Bm Asus2

Emadd9
Don't tell me
                 Bm
What's the world come to

comments
We did not receive enough feedback on this tab! Please rate:
print report bad tab
1 2 3 4 5
I want to post or [tab]
guest
You may want to rate the tab now too:
select rating
Please do not post tabs as comments. Select "correction" instead!