Oops, an error
Loading. Please wait.

Darkest Hour solo tab

version 2
version 2

Solo

1,180 views 18 this week
4 commentsread comments
1 2 3 4 5
1 last vote to show rating
add to favorites
×
Save as Personal and add changes to this tab that will be seen only by you. Learn more ›
×
You can save this tab as Personal to edit and correct it or add notes. All changes will be seen only by you. Learn more »
launch autoscroll
font size
0
reset
how to read this tab
guitar tuner
edit
Autoscroll
slow
fast
+/-
esc
set tempo
stop
Author
Difficulty
Zakk Wylde - Darkest Hour (Solo)



e|--10---9---7-----------------------------------------------------------------------------------------|
B|--------------10-8-7-10-8-7----------------------------7--------7-------7--8--7--7-------------------|
G|----------------------------9-7-6-9-7-6----------------9b11-----9b11~------------9b11---11r9p7--9~---|
D|----------------------------------------9-7-5-9-7-5--------------------------------------------------|
A|-----------------------------------------------------------------------------------------------------|
E|-----------------------------------------------------------------------------------------------------|

e|--------------------10-------12--------12b14r12b14----12b14---12b15---12b14r12--10~----10h12p10------|
B|--10b12~---12b14~---13b15~---15b17~--------------------------------------------------------------12~-|
G|-----------------------------------------------------------------------------------------------------|
D|-----------------------------------------------------------------------------------------------------|
A|-----------------------------------------------------------------------------------------------------|
E|-----------------------------------------------------------------------------------------------------|

e|-----------------------------------------------------------------------------------------------------|
B|--12b13r12--10~----10h12p10-----10h12p10----10h12p10-------------------------------------------------|
G|----------------------------11~----------9~----------7~----7h9p7--6--7--9--9/11--9--7--6--7--9--7----|
D|-----------------------------------------------------------------------------------------------------|
A|-----------------------------------------------------------------------------------------------------|
E|-----------------------------------------------------------------------------------------------------|

e|-----------------------------------------------------------------------------------------------------|
B|-----------------------------------------------------------------------------------------------------|
G|--6--7--6h7p6--------9-7h9p7\6---7-6h7p6\4---6-4h6p4\2---4--2--0------4/6--6--6--6/7--7--7--7/11-----|
D|--------------9~-------------------------------------------------------------------------------------|
A|----------------------------------------------------------------------2/4--4--4--4/5--5--5--5/9------|
E|-----------------------------------------------------------------------------------------------------|

e|----------------------------------------------------------------------------------10~---------7-12~--|
B|------------------------------------------------------------------7-8-10-7-8-10-7--------7h10--------|
G|--9--9--9--7--6--7~-----------------------------------6-7-9-6-7-9------------------------------------|
D|------------------------------------------5-7-9-5-7-9------------------------------------------------|
A|--7--7--7--5--4--5~--------------5--7--9-------------------------------------------------------------|
E|------------------------5--7--9----------------------------------------------------------------------|

e|--------10-14~--------12-15~--------12-17~--------15-19~--------17-21~--------19-21b23-------21b23---|
B|--10h12---------12h15---------12h15---------15h17---------17h19---------19h22------------------------|
G|-----------------------------------------------------------------------------------------------------|
D|-----------------------------------------------------------------------------------------------------|
A|-----------------------------------------------------------------------------------------------------|
E|-----------------------------------------------------------------------------------------------------|

e|--21b23---21b23---21b23r21--------21-19h21p19\17---19-17h19p17\14---17-14h17p14\12---14-12h14p12\10--|
B|-----------------------------------------------------------------------------------------------------|
G|-----------------------------------------------------------------------------------------------------|
D|-----------------------------------------------------------------------------------------------------|
A|-----------------------------------------------------------------------------------------------------|
E|-----------------------------------------------------------------------------------------------------|

e|--12-10h12p10\7----7-------7--------7-------------7--------------------------------------------------|
B|----------------10---------10b12------10-7------7---10p7----8p7--------------------------------------|
G|-------------------------------------------9b11----------10-----10--10p9p7--9p7----------------------|
D|---------------------------------------------------------------------------------10------------------|
A|-----------------------------------------------------------------------------------------------------|
E|-----------------------------------------------------------------------------------------------------|

e|--------15--15--15-----15------------------------14-15-17-15-14--------------------------------------|
B|--19b20----(20)-20r19--19---17~--15~----14h15h17----------------17-15-14-----------------------------|
G|-----------------------------------------------------------------------------------------------------|
D|-----------------------------------------------------------------------------------------------------|
A|-----------------------------------------------------------------------------------------------------|
E|-----------------------------------------------------------------------------------------------------|

e|--------15--15--15-----15----------19-17----17-15----15-14---------------15--15--15-----15-----------|
B|--19b20----(20)-20r19--19--17~--15-------15-------14-------17------19b20----(20)-20r19--19--17~--15~-|
G|-----------------------------------------------------------------------------------------------------|
D|-----------------------------------------------------------------------------------------------------|
A|-----------------------------------------------------------------------------------------------------|
E|-----------------------------------------------------------------------------------------------------|

e|--------------14--17/19---17h19p17\15---17-15h17p15\14---15-14h15p14\12---14-12h14p12\10-------------|
B|--14--15--17-----------------------------------------------------------------------------------------|
G|-----------------------------------------------------------------------------------------------------|
D|-----------------------------------------------------------------------------------------------------|
A|-----------------------------------------------------------------------------------------------------|
E|-----------------------------------------------------------------------------------------------------|

e|--12-10h12p10\9---12--10h12p10h12p10--9h10p9h10p9--7h9p7h9p7--5h7p5h7p5--3h5p3h5p3--2h3p2h3p2--------|
B|-----------------------------------------------------------------------------------------------------|
G|-----------------------------------------------------------------------------------------------------|
D|-----------------------------------------------------------------------------------------------------|
A|-----------------------------------------------------------------------------------------------------|
E|-----------------------------------------------------------------------------------------------------|

e|--0h2p0h2p0------------------2--3--5--5--3--2--------------------3--5--7--7--5--3--------------------|
B|--------------------2--3--5--------------------5--3--2--3--5--7--------------------7--5--3-----------|
G|---------------\-------------------------------------------------------------------------------------|
D|-----------------------------------------------------------------------------------------------------|
A|-----------------------------------------------------------------------------------------------------|
E|-----------------------------------------------------------------------------------------------------|

e|--9--7--5-----------------5--7--9--10--10--9--7-------------------7--9--10--12-------------9h10h12---|
B|-----------8--7--5--7--8-------------------------10--8--7--8--10-------------------8-10-12-----------|
G|-----------------------------------------------------------------------------------------------------|
D|-----------------------------------------------------------------------------------------------------|
A|-----------------------------------------------------------------------------------------------------|
E|-----------------------------------------------------------------------------------------------------|

e|--p10p9------------------9h10h12p10p9------------------9h10h12p10p9-------------------10h12h14p12p10--|
B|--------12-10-8--8-10-12--------------12-10-8--8-10-12--------------12-10-8--10-12-14-----------------|
G|-----------------------------------------------------------------------------------------------------|
D|-----------------------------------------------------------------------------------------------------|
A|-----------------------------------------------------------------------------------------------------|
E|-----------------------------------------------------------------------------------------------------|

e|---------------------12h14h15p14p12--------------------14h15h17p15p14--------------------15h17h19-19-|
B|--14-12-10--12-14-15----------------15-14-12--14-15-17----------------17-15-14--15-17-19-------------|
G|-----------------------------------------------------------------------------------------------------|
D|-----------------------------------------------------------------------------------------------------|
A|-----------------------------------------------------------------------------------------------------|
E|-----------------------------------------------------------------------------------------------------|

e|--19-19-19-17-15---------------------21b22---22r21--21--19~----19-19---17--17---14--14---12--12---10-|
B|-----------------19p17p15\14-15~---------------------------------------------------------------------|
G|-----------------------------------------------------------------------------------------------------|
D|-----------------------------------------------------------------------------------------------------|
A|-----------------------------------------------------------------------------------------------------|
E|-----------------------------------------------------------------------------------------------------|

e|--/21----21------19------17------15------14----12------19--17h19p17h19p17--15h17p15h17p15------------|
B|------19------17------15------14------12----10-------------------------------------------------------|
G|-----------------------------------------------------------------------------------------------------|
D|-----------------------------------------------------------------------------------------------------|
A|-----------------------------------------------------------------------------------------------------|
E|-----------------------------------------------------------------------------------------------------|

e|--14h15p14h15p14--12h14p12h14p12--10h12p10h12p10--9h10p9h10p9--7h9p7h9p7----------------9h10h12p10p9-|
B|----------------------------------------------------------------------------/8--8-10-12--------------|
G|-----------------------------------------------------------------------------------------------------|
D|-----------------------------------------------------------------------------------------------------|
A|-----------------------------------------------------------------------------------------------------|
E|-----------------------------------------------------------------------------------------------------|

e|--------------------10h12h14p12p10--------------------12h14h15p14p12--------------------15h17h19-19--|
B|--12-10-8--10-12-14----------------14-12-10--12-14-15----------------15-14-12--15-17-19--------------|
G|-----------------------------------------------------------------------------------------------------|
D|-----------------------------------------------------------------------------------------------------|
A|-----------------------------------------------------------------------------------------------------|
E|-----------------------------------------------------------------------------------------------------|

e|--19-19-19-15-----21b22---22r21--21--19~--------14----------14---------------------------------------|
B|------------------------------------------------17b19-------19r17----15~-----------------------------|
G|-----------------------------------------------------------------------------------------------------|
D|-----------------------------------------------------------------------------------------------------|
A|-----------------------------------------------------------------------------------------------------|
E|-----------------------------------------------------------------------------------------------------|


***********************************

| /        Slide up
| \        Slide down
| h        Hammer-on
| p        Pull-off
| ~        Vibrato
| b        Bend
| r        Bend release
| (note)   Play note while bent

***********************************

            
            
Suggest correction
Creating personal tab
Creating personal tab
You can edit any tab online and save it as your Personal.

You can edit, replace or remove any tab part or add personal notes – all changes will be seen only by you.

Personal tabs can be accessed anytime from any device, even offline.
Learn more »
Give kudos to tab author, rate the tab!
1 2 3 4 5
comments
print report bad tab
4 comments total. Showing first comments.
0 reply
mihaelp 41 Feb 02, 2017 10:20 AM

didn't like this contribution

0 reply
gabrielgarcia110996 10 Apr 03, 2017 10:17 AM, edited at 02:18 pm

você Não gostou desta contribuição vou ver se vale apena

guest
You may want to rate the tab now too:
select rating
Wanna post a correction for this tab? Suggest correction