Oops, an error
Loading. Please wait.

Dead As Yesterday Tab

version 2
version 2

Whole song

Interactive

70,072 views 42 this week
4 commentsread comments
1 2 3 4 5
x 15
add to favorites
launch autoscroll
font size
0
reset
how to read this tab
guitar tuner
Autoscroll
slow
fast
+/-
esc
set tempo
stop
Help us to improve Ultimate-Guitar.com Take our survey!
×
Difficulty
Tuning
advanced
D A D G B E
---------------------------------------------------------------------
                Dead As Yesterday - Zakk Wylde
---------------------------------------------------------------------
Tabbed by: Christian Jonsson
Email: dynamic90@hotmail.com

Tuning: Drop D (D, A, D G, B, E)

e|----2-3---2-3---2-3---------2------2-3----2-3---2-------------2---|
B|-----3-3---3-3---3-3---------3------3-3----3-3--3--------------3--|
G|---------------------------2--------------------0------------2----|
D|-0------------------------0---------------------0-----------0-----|
A|---------3-----2------0-h2-------0-------3------2-------0-h2------|
E|---------------------------------0--------------------------------|

e|---2-3---2-3---2-3----------------------------0--------2-3---2----|
B|----3-3---3-3---3-3----------------------------3--------3-3--3----|
G|-----------------------------------0-------------------------0----|
D|------------------------0-----------0------------------------0----|
A|-0------3-----2-----0-h2------------------0---------0-------------|
E|-0-------------------------0-h1-/2----2-/4----------0-------------|

e|----2-3---2-3---2-3----------2------2-3----2-3----2-3----------2--|
B|-----3-3---3-3---3-3----------3------3-3----3-3----3-3----------3-|
G|----------------------------2---------------------------------2---|
D|---------------------------0---------------------------------0----|
A|-0--------3-----2------0-h2-------0-------3------2-------0-h2-----|
E|-0--------------------------------0-------------------------------|

e|---2-3---2-3---2-3----------------------------0--------2-3---2----|
B|----3-3---3-3---3-3----------------------------3--------3-3--3----|
G|-----------------------------------0-------------------------0----|
D|------------------------0-----------0------------------------0----|
A|-0------3-----2-----0-h2------------------0---------0-------------|
E|-0-------------------------0-h1-/2----2-/4----------0-------------|

e|-2--2-3---2-3---2-3---------2--------2-3---2-3----2-3----------2--|
B|-3---3-3---3-3---3-3---------3--------3-3---3-3----3-3----------3-|
G|-0-------------------------2----------------------------------2---|
D|-0------------------------0----------------------------------0----|
A|-0------3------2------0-h2-------0--------3------2-------0-h2-----|
E|-0-------------------------------0--------------------------------|

e|---2-3---2-3---2-3----------------------------0--------2-3---2----|
B|----3-3---3-3---3-3----------------------------3--------3-3--3----|
G|-----------------------------------0-------------------------0----|
D|------------------------0-----------0------------------------0----|
A|-0------3-----2-----0-h2------------------0---------0-------------|
E|-0-------------------------0-h1-/2----2-/4----------0-------------|

e|-2--2-3---2-3---2-3---------2--------2-3---2-3----2-3----------2--|
B|-3---3-3---3-3---3-3---------3--------3-3---3-3----3-3----------3-|
G|-0-------------------------2----------------------------------2---|
D|-0------------------------0----------------------------------0----|
A|-0------3------2------0-h2-------0--------3------2-------0-h2-----|
E|-0-------------------------------0--------------------------------|

e|---2-3---2-3---2-3----------------------------0--------2-3---2----|
B|----3-3---3-3---3-3----------------------------3--------3-3--3----|
G|-----------------------------------0-------------------------0----|
D|------------------------0-----------0------------------------0----|
A|-0------3-----2-----0-h2------------------0---------0-------------|
E|-0-------------------------0-h1-/2----2-/4----------0-------------|

    B    A    G  
e|--2----0----3--|
B|--3----2----3--|
G|--4----2----0--|
D|--4----2----0--|
A|--2----0----2--|
E|--x----x----x--|x4

e|----2-3---2-3---2-3---------2--------2-3---2-3----2-3----------2---|
B|-----3-3---3-3---3-3---------3--------3-3---3-3----3-3----------3--|
G|---------------------------2----------------------------------2----|
D|-0------------------------0----------------------------------0-----|
A|--------3------2------0-h2-------0--------3------2-------0-h2------|
E|---------------------------------0---------------------------------|

e|---2-3---2-3---2-3----------------------------0--------2-3----3----|
B|----3-3---3-3---3-3----------------------------3--------3-3----3---|
G|-----------------------------------0-------------------------------|
D|-------------------------0----------0------------------------------|
A|--0-----3-----2-----0-h2------------------0---------0--------0-----|
E|--0------------------------0-h1-/2----2-/4----------0--------0-----|

e|------------------0---------2-3-----3------------------------------|
B|-------------------3---------3-3-----3-----------------------------|
G|---------0---------------------------------------------------------|  
D|----------0--------------------------------------------------------|
A|-----------------0---------0-------0-------------------------------|
E|--0-h1-/2----2-/4----------0-------0-------------------------------|

e|------------------3------------------------------------------------|
B|------------------3------------------------------------------------|
G|---------0--------0------------------------------------------------|
D|----------0-------2------------------------------------------------|
A|------------------0------------------------------------------------|
E|--0-h1-/2----2-/4-x------------------------------------------------|

e|-----------------------------------------2-3---2-3-----------------|
B|----3-3---3-3---3-3---3-3---3-3---3-3-----3-3---3-3----------------|
G|-----0-0---0-0---0-0---0-0---0-0---0-0-----------------------------|
D|-------------------------------------------------------------------|
A|---3-----3-----2-----2-----1-----1------0-----0--------------------|
E|----------------------------------------0-----0--------------------|

e|----------------------------x--------------------------------------|
B|----3-3---3-3---3-3---3-3---3--------------------------------------|
G|-----0-0---0-0---0-0---0-0--0--------------------------------------|
D|----------------------------0--------------------------------------|
A|---3-----3-----2-----2------1-----------------0--------------------|
E|----------------------------x-----------------0--------------------|

 
************************************

| x  Dead note
| h  Hammer-on
| /  Slide up

************************************
Suggest correction
comments
print report bad tab
4 comments total. Showing first comments.
+1 reply
wasco100 10 Dec 21, 2008 04:54 PM

wow great tab man!!!!one of the best if ever seen!!!!!

+1 reply
wasco100 10 Dec 21, 2008 04:54 PM

ive*

+2 reply
Tabassco 143 Jun 22, 2009 03:27 AM

B should be Bm

guest
You may want to rate the tab now too:
select rating
Wanna post a correction for this tab? Suggest correction