Oops, an error
Loading. Please wait.

Dead As Yesterday Tab

version 3
version 3

Whole song

Interactive

6,827 views 12 this week
no commentswrite comment
1 2 3 4 5
worth learning
x 4
add to favorites
launch autoscroll
font size
0
reset
how to read this tab
guitar tuner
Autoscroll
slow
fast
+/-
esc
set tempo
stop
Help us to improve Ultimate-Guitar.com Take our survey!
×
Author
Difficulty
Tuning
intermediate
D A D G B E
-------------------------------------------------------------------------------
                             Dead as Yesterday - Zakk Wylde
-------------------------------------------------------------------------------

Tabbed by:  Apostolas
Email:  apostolas.hale@gmail.com

Tuning:  Drop D

I tabbed this from the version on youtube.  This song is played on a 12-String. I 
figure out the solo at the beginning but I will try to get it posted later.

Intro:  x1

e|-----------3----------------3----------------3-----------------------------|
B|--------------4----------------4----------------4-------------4------------|
G|-----2----------------0----------------0-------------------0-----0---------|
D|--------0----------------0----------------0-------------0-----------0------|
A|--0--------------0h3--------------0h2--------------0h2---------------------|
D|---------------------------------------------------------------------------|

e|-----------3----------------3------3---------------------------------------|
B|--------------4----------------4---4--------------4------------------------|
G|-----2----------------0------------0-----------0-----0---------------------|
D|--------0----------------0---------0--------0-----------0------------------|
A|--0--------------0h3---------------2---0h2---------------------------------|
D|---------------------------------------------------------------------------|

e|-----------3----------------3----------------3-----3-----------------------|
B|--------------4----------------4----------------4-----4--------------------|
G|-----2----------------0----------------0-----------------0-----------------|
D|--------0----------------0----------------0-----------------0--------------|
A|--0--------------0h3--------------0h2--------------------------------------|
D|---------------------------------------------------------------------------|

e|-----------------------------------------------3------3--------------------|
B|--------------------------------0-----------------4---4--------------------|
G|-----------0-----------------0-----0-----2------------2--------------------|
D|--------------0-----------------------------0------------------------------|
A|-----------------------0--2-----------0------------------------------------|
D|--0--1--2--------4--5------------------------------------------------------|

Verse: x3

e|-----------3----------------3----------------3-----------------------------|
B|--------------4----------------4----------------4-------------4------------|
G|-----2----------------2----------------2-------------------0-----0---------|
D|--------0----------------0----------------0-------------0-----------0--x3--|
A|--0--------------0h3--------------0h2--------------0h2---------------------|
D|---------------------------------------------------------------------------|

e|----------------------------------------------------------3-----3---3------|
B|-------------------------------------------0-----------------4--4---4------|
G|----------0-----------0-----------------0-----0-----2-----------2---2------|
D|-------0-----------------0-----------------------------0------------0------|
A|--0h2-----------------------------0--2-----------0------------------0------|
D|-------------0--1--2--------4--5-------------------------------------------|

Bridge:  x4 excluding the firt 4 beats
*=Strum - to find the pattern watch the video.

    x1 through    *    *    *     *     *     *
e|--3--3--3--3---------------------------------------------------------------|
B|--4--4--4--4----0----0-----------------------------------------------------|
G|--2--2--2--2----4----4----0-----0-----0-----0------------------------------|
D|--0--0--0--0----4----2----5--p--4--h--5--p--4------------------------------|
A|----------------2----4----0-----0-----0-----0------------------------------|
D|----------------0----0----5-----5-----5-----5------------------------------|

Repeat Verse x1  without the two strums at the end

Then this:

e|-----------------------------------------------3---------------------------|
B|--------------------------------0-----------------4------------------------|
G|-----------0-----------------0-----0-----2---------------------------------|
D|--------------0-----------------------------0------------------------------|
A|-----------------------0--2-----------0------------------------------------|
D|--0--1--2--------4--5------------------------------------------------------|

e|--------------------------0------------------------------------------------|
B|--------------------------0------------------------------------------------|
G|-----------0--------------0------------------------------------------------|
D|--------------0-----------2------------------------------------------------|
A|-----------------------0--0------------------------------------------------|
D|--0--1--2--------4--5------------------------------------------------------|

Tap guitar x3 then

e|----------------------------------------------------------------------------|
B|-----------0--------------0--------------0--------------0--------------0----|
G|-----0--------0-----0--------0-----0--------0-----0--------0-----0--------0-|
D|--------0--------------0--------------0--------------0--------------0-------|
A|--3--------------3--------------2--------------2--------------1-------------|
D|----------------------------------------------------------------------------|

e|--------------------------3-----3------------3-----------------------------|
B|-----------0-----------------4--4--------4---4-----------------------------|
G|-----0--------0-----2-----------2-----2------2-----------------------------|
D|--------0--------------0--------0------------------------------------------|
A|--1--------------0---------------------------------------------------------|
D|---------------------------------------------------------------------------|

e|----------------------------------------------------------------0----------|
B|-----------0--------------0--------------0--------------0-------0----------|
G|-----0--------0-----0--------0-----0--------0-----0--------0----0----------|
D|--------0--------------0--------------0--------------0----------0----------|
A|--3--------------3--------------2--------------2----------------1----------|
D|---------------------------------------------------------------------------|

I'm pretty sure that this tab is correct.  Just listen to the song and enjoy playin it.

| /  slide up
| \  slide down
| h  hammer-on
| p  pull-off
| ~  vibrato
| +  harmonic
| x  Mute note
===============================================================================
Suggest correction
comments
print report bad tab
guest
You may want to rate the tab now too:
select rating
Wanna post a correction for this tab? Suggest correction