Oops, an error
Loading. Please wait.

Farm Fiddlin tab

version 2
version 2

Whole song

Interactive

2,575 views 6 this week
no commentswrite comment
1 2 3 4 5
2 more votes to show rating
add to favorites
×
Save as Personal and add changes to this tab that will be seen only by you. Learn more ›
×
You can save this tab as Personal to edit and correct it or add notes. All changes will be seen only by you. Learn more »
launch autoscroll
font size
0
reset
how to read this tab
guitar tuner
backing track
0:00
0:00
edit
Autoscroll
slow
fast
+/-
esc
set tempo
stop
I marked all parts I`m not sure about with: ???

Clean:
|-----------------|----------------------------------|
|-----------------|----------------------------------|
|-------2b4--2b4--|-2b4r(2)-0-2p0---0----0---2p0---0-|
|-----5-5----5----|-5-------------2---/2---2-----2---|
|-----------------|----------------------------------|
|-----------------|----------------------------------|


|-------------------------------|
|-------------------------------|
|-2s3s2p0-2p0-----------------0-|
|-------------2p0-0-2p0---------|
|-----------------------3p2-----|
|---------------------------3---|


   
||---------------------------------|--------------------------------|
||o--------------------------------|--------------------------------|
||-----0---4p0---0-----0-----0-2p0-|----0---4p0---0-4p0-3p0-2p0---0-|
||--/5---5-----5---------0h2-------|-/5---5-----5---------------0---|
||o----------------3s5-------------|--------------------------------|
||---------------------------------|--------------------------------|


|--------------------------------|--------------------------------------||
|--------------------------------|------3------3-----------------------o||
|----0---4p0---0-----0-----0-2p0-|-2b4====2pb4---2r(2)p0-2p0---0-----0--||
|-/5---5-----5---------0h2-------|---------------------------0---0h2----||
|----------------3s5-------------|-------------------------------------o||
|--------------------------------|--------------------------------------||


|----------------------------------------|
|----12-12p10----12----12p10----12-10s12-|
|----------------------------------------|
|----12-12-------12----12-------12-10s12-|
|-10----------10----10-------10----------|
|----------------------------------------|
|
| 
|----------------------------------------|
|-12-------------------------------12s===|
|----------------------------------------|
|-12-------------------------------12s===|
|----------------------------------------|
|----------------------------------------|


|--------------------------------------------|
|----12-12p10----12----12p10----12----10h=12-|
|--------------------------------------------|
|----11-11-------11----11-------11----11-----|
|--------------------------------------------|
|-12----------12----12-------12----12--------|
|
|--------------------------------------------|
|-10----------------------------------10\----|
|--------------------------------------------|
|-11----------------------------------11\----|
|--------------------------------------------|
|--------------------------------------------|


                                       PM----|
|------------------------------------|------------------------------------|
|----------12s11---11---11s10---10---|------------------------------------|
|--------9-------------------------9s|=7p0-6p0-5p0---0-3p0---0-3p0-3s4s7--|
|-----10---11s10---10---10------10---|-------------5-------5--------------|
|------------------------------------|------------------------------------|
|---8------------8----8-------8------|------------------------------------|
|
|------------------------------------|------------------------------------|
|-/13--------------------------------|------------------------------------|
|------------------------------------|------------------------------------|
|-/14--------------------------------|------------------------------------|
|------------------------------------|------------------------------------|
|------------------------------------|------------------------------------|


|----------------------------------------|
|----12-12p10----12----12p10----12-10s12-|
|----------------------------------------|
|----12-12-------12----12-------12-10s12-|
|-10----------10----10-------10----------|
|----------------------------------------|
|
|----------------------------------------|
|-12-------------------------------12s===|
|----------------------------------------|
|-12-------------------------------12s===|
|----------------------------------------|
|----------------------------------------|

              I`m not sure about the bass notes
|-----------------------------------------|
|----12-12p10----15----13----12----11-----|
|----------------14-----------------------|
|----11-11-------14----12----12----11-----|
|-----------------------------------------|
|-12----------12----12----12----10-----9--|
|
|-----------------------------------------|
|-10----------------------------------10--|
|-----------------------------------------|
|-11----------------------------------11--|
|-----------------------------------------|
|-----------------------------------------|

                                     ???????????????????????
|-----------------------------------|-7---6---5-------------|
|----12-12s11---11---11s10---10-----|-------------7---6---5-|
|-------------------------------9p7-|-7---6---5---7---6---5-|
|----11-11s10---10---10------10-----|---8---7---7---6---5---|
|-----------------------------------|-----------------------|
|--8----------8----8-------8--------|-----------------------|
|
|-----------------------------------|-----------------------|
|-13--------------------------------|-----------------------|
|-----------------------------------|-----------------------|
|-14--------------------------------|-----------------------|
|-----------------------------------|-----------------------|
|-----------------------------------|-----------------------|


  PM----|
|-----------------------------------||--------------------------------|
|-----------------------------------||o---7-------7-----10-(10)-8---7-|
|-7p0-6p0-5p0---0-3p0---0-3p0-3s4s7-||------7-(7)---7-----------7---7-|
|-------------5-------5-------------||--0------0------0------0----0---|
|-----------------------------------||o-------------------------------|
|-----------------------------------||--------------------------------|


                                                 PM--|
|------------------------------|-------------------------------|
|---5-5-----5---5-----5--------|-------------------------------|
|---5-5p0---5---5p0---5p0----0-|---0---5p0---3p0---5p0-3p0---0-|
|-------------------------/5---|-5---5-----5-----5---------5---|
|-3-------3---3-----3----------|-------------------------------|
|------------------------------|-------------------------------|


                   PM--|
|---------------------------------||-|
|--------------------------------o||-|
|----0---5p0---3p0---5p0-3p0---0--||-|
|-/5---5-----5-----5---------5----||-|
|--------------------------------o||-|
|---------------------------------||-|


|-----------------------------|
|-----------------3---5---3h5-| 
|-----3-5-3h5-----------------|
|-------------3s5---5---5-----|
|-5s7-------------------------|
|-----------------------------|


|-------------------------------------------|
|-5pb7r(5)-3---5---3------------------------|
|------------5---5---5pb7r5p3---5p0-3b5r3---|
|-----------------------------5-----------5-|
|-------------------------------------------|
|-------------------------------------------|


|-----------------------------------|
|-7-5---5-3---5pb6r(5)-3---5---3b4r=|
|-7-5---5-3---5pb7r(5)-3---5---3b5r=|
|-----5-----5------------5---5------|
|-----------------------------------|
|-----------------------------------|


|---------------------------------|
|-(3)---5---3b4r3---3b3.5---------|
|-(3)---5---3b5r3---3b4---------3-|
|-----5---5-------5-------5-3-5---|
|---------------------------------|
|---------------------------------|


|--------------------------------------------------|
|--------6--------6--------6--------6--------6-----|
|-8s9s10---8s9s10---8s9s10---8s9s10---8s9s10---8s==|
|--------------------------------------------------|
|--------------------------------------------------|
|--------------------------------------------------|


                        ~
|---------------------------|-9---8---7---6--------------------|
|-------5-------------------|---8---7---6-----6---5---4---3----|
|-5p3---5---3h5p3---5---3---|---------------5---4---3---2------|
|-----5---5-------5---5-----|-------------------------------4--|
|---------------------------|----------------------------------|
|---------------------------|----------------------------------|



|--------------------------------|---------------------------------|
|--------------------------------|---------------------------------|
|-5---4---3----------------------|---------------------------------|
|---3---2-----5---4---3---2------|----7p5-7-5---7p5---7p5-----7p5--|
|-----------4---3---2---1---0----|--0---------0-----0-----0--------|
|------------------------------3-|---------------------------------|
|
|                             
|--------------------------------|---------------------------------|
|-----------------------------12s|=14-----------------------/14----|
|-----------------------------12s|=14-----------------------/14----|
|--------------------------------|---------------------------------|
|--------------------------------|---------------------------------|
|--------------------------------|---------------------------------|


|--------------------------------|------------------------------|
|--------------------------------|----------3---3h5p3p0---------|
|----5p0-5p0---5p0-5p0---5p0-----|----0-3h4---0---------3p0-2p0-|
|------------------------------0-|-/5---------------------------|
|--3---------3---------3-----5---|------------------------------|
|--------------------------------|------------------------------|
|
|--------------------------------|------------------------------|
|-17-----------------------------|------------------------------|
|-17-----------------------------|------------------------------|
|--------------------------------|------------------------------|
|--------------------------------|------------------------------|
|--------------------------------|------------------------------|


|-------------------------------|----------------------------------|
|----------3---3h5p3p0----------|----------------------------------|
|----0-3h4---0---------3p0--2p0-|----------------------------------|
|-/5----------------------------|----7p5---7p5---7p5---7p5----7p=5-|
|-------------------------------|--0-----0-----0-----0-----0-------|
|-------------------------------|----------------------------------|
|
|-------------------------------|----------------------------------|
|--------------------------12s==|=14-------------------------14/---|
|--------------------------12s==|=14-------------------------14/---|
|-------------------------------|----------------------------------|
|-------------------------------|----------------------------------|
|-------------------------------|----------------------------------|


|--------------------------8\---||-|
|--------------------------7\---||-|
|----5p0-5p0---7p0-7p0-----8\---||-|
|-------------------------------||-|
|--3---------5----------5-------||-|
|-------------------------------||-|
|
|----------------------20\------||-|
|-17----------------------------||-|
|-17-------------------21\------||-|
|-------------------------------||-|
|-------------------------------||-|
|-------------------------------||-|


|----------------------------------------------------|
|-15---------12--------15p12--------12---------------|
|-15--14b16=====14pb16-------14pb16----14r(14)p12----|
|-------------------------------------------------14-|
|----------------------------------------------------|
|----------------------------------------------------|


|----------22-------21-------20----|
|-12-------------------------------|
|-12-17-19----19-18----18-17----17-|
|----------------------------------|
|----------------------------------|
|----------------------------------|


|------------------------------------------|
|-12-11-13h14p13-11----13------------------|
|-12----------------12----x-12p10----12p10-|
|---------------------------------12-------|
|------------------------------------------|
|------------------------------------------|


|----------10----10----------------------------|
|----------11b12-11b12----------12----12-------|
|-10h12p10-------------12p10----12----12p10----|
|----------------------------12----12-------12-|
|----------------------------------------------|
|----------------------------------------------|


        PM----|
|-------------------------------------|---3--------------------------|
|-12----------------------------------|------------------------------|
|-12-12S7p0-6p0-3p0---0-3b4r(3)p0---0-|-3-4-----0---0---------3------|
|-------------------5-------------5---|-----0h2---2---2-0-3h5---5p3--|
|-------------------------------------|------------------------------|
|-------------------------------------|------------------------------|


|---------------------------|
|---8-----6s7---7-----6---5-|
|-----5-----------5---4---3-|
|-5-----5-----7-----6-6-5-5-|
|---------------------------|
|---------------------------|


|---------------------------|---------------------------|
|---8-----6s7---7-----6---5-|---8-----6s7---7-----6---5-|
|-----5-----------5---4---3-|-----5-----------5---4---3-|
|-5-----5-----7-----6-6-5-5-|-5-----5-----7-----6-6-5-5-|
|---------------------------|---------------------------|
|---------------------------|---------------------------|


|-10---9---8--------------||---------------------------------|
|------8---7--------------||o--------------------------------|
|-10-9---8---5p3p0--------||-----0---4p0---0-----0-----0-2p0-|
|------------------5-3-5--||--/5---5-----5---------0h2-------|
|-------------------------||o----------------3s5-------------|
|-------------------------||---------------------------------|


|--------------------------------|---|
|--------------------------------|---|
|----0---4p0---0-4p0-3p0-2p0---0-|---|
|-/5---5-----5---------------0---|---|
|--------------------------------|---|
|--------------------------------|---|


|--------------------------------|--------------------------------------||
|--------------------------------|------3------3-----------------------o||
|----0---4p0---0-----0-----0-2p0-|-2b4====2pb4---2r(2)p0-2p0---0-----0--||
|-/5---5-----5---------0h2-------|---------------------------0---0h2----||
|----------------3s5-------------|-------------------------------------o||
|--------------------------------|--------------------------------------||


||--------------------------------------|
||o-12p8-10p8-------8-12p8-10p8-------8-|
||------------10s12-------------10s12---|
||--------------------------------------|
||o-------------------------------------|
||--------------------------------------|


|-----------------------------------------|
|-12p8-10p8-------8-------8-------8----8--|
|-----------10s12---10s12---10s12---12----|
|-----------------------------------------|
|-----------------------------------------|
|-----------------------------------------|


                                       1.
|-------------------------------------|--------------------------------||
|-12p8-10p8-------8-12p8-10p8-------8-|-5p0-3p0-----------------------o||
|-----------10s12-------------10s12---|---------3p0-2p0-3p0-2p0--------||
|-------------------------------------|-------------------------2p0----||
|-------------------------------------|-------------------------------o||
|-------------------------------------|-----------------------------3--||


  2.
|----------------------------------------------||-||
|--------12--------15p12--------12-------------||-||
|-14b16=====14pb16-------14pb16----14r14p12----||-||
|-------------------------------------------14-||-||
|----------------------------------------------||-||
|----------------------------------------------||-||


|----10----10----10----10----8----8----8----8-|
|-13----13----12----12----11---11---10---10---|
|---------------------------------------------|
|---------------------------------------------|
|---------------------------------------------|
|---------------------------------------------|


|---3---3---3---3-----------------|
|-6---6---5---5-----1---1---0---0-|
|-----------------5---5---4---4---|
|---------------------------------|
|---------------------------------|
|---------------------------------|


|-----------------------------------|---------------------------3--||--|
|-----------------------------------|---------------------------0--||--|
|-2h3p2p0-2p0-----------------------|---------------------------0--||--|
|-------------2-2-2b3r(2)-0-2p0-0-0-|---------------------------0--||--|
|-----------------------------------|-3b5r(3)-(3)p2-3-2b3r(2)---2--||--|
|-----------------------------------|-------------------------3-3--||--|


faster
W/Distortion:

    PM----------------|                             PM----------|
||--------------------------------|-------------------------------|
||o-------------------------------|-3-----------------------------|
||----------------------[5]b7r(5)-|---2b4-0-2p0---0---------------|
||--------------------------------|-------------3---3-0-2-0-------|
||o-------------1-2---------------|-------------------------1-2---|
||--0-1-1-2-3-3-----3-1-----------|-----------------------------3-|


                          1.
  PM----------------|                                 ~
|------------------------|--------------------------------||
|------------------------|-------------------------------o||
|------------------------|----------------[3]b5-[3]b5-----||
|---------------------3--|-7-6-(6)-5-(5)\-------------5---||
|-------------1-2-----3--|-5-4-(4)-3-(3)\----------------o||
|-0-1-1-2-3-3-----3-1-1--|--------------------------------||


  2.
  PM--------|              ~
|------------------------------||--|
|-----------------------------o||--|
|--------------[3]b5-[3]b5-----||--|
|-7-7-6-6-5-5\-------------5---||--|
|-5-5-4-4-3-3\----------------o||--|
|------------------------------||--|


    PM|       PM
||---------------------------------------|
||o--------------------------------------|
||------7--7-----7------------(7)\-------|
||--0-5-5--5--5--5------------(5)\-------|
||o--------------------------------------|
||---------------------------------------|
|
|   
||-----------15--------------------------|
||o-------------15-----------------------|
||-----------------14b16r(14)-12------12-|
||---------------------------------14----|
||o--------------------------------------|
||---------------------------------------|


  PM|             PM
|--------------------------------------------|
|--------------------------------------------|
|-----5--5-----------5------------(5)\-------|
|-0-3-3--3--------3--3------------(3)\-------|
|--------------------------------------------|
|--------------------------------------------|
|
|----------------13--------------------------|
|-------------------13-----------------------|
|----------10s12-------12b14r(12)-10------10-|
|--------------------------------------12----|
|--------------------------------------------|
|--------------------------------------------|


  PM--|          PM
|-----------------------|
|-----------------------|
|-----------------------|
|-------5----5-3---3----|
|-0-3-3-3--3-3-1-x-1----|
|-----------------------|


   PM----------------------------------------------------------------------|
|-----------------------------------------------------------------------------------|
|-----------------------------------------------------------------------------------|
|-----------------------------------------------------------------------------------|
|-----------------------------------------------------------------------------------|
|-----------------------------------------------------------------------------------|
|--0----1-----1----2-----3--------3--------0----1-----1----2-----3-----------3------|
|
|-18-15---18-15---------18-15-18-15-------18-15---18-15-----------------------------|
|---------------18---15-------------18-15---------------18---15-18b20r(18)-(18)b20\-|
|-----------------------------------------------------------------------------------|
|-----------------------------------------------------------------------------------|
|-----------------------------------------------------------------------------------|
|-----------------------------------------------------------------------------------|


  PM|             PM
|--------------------------------------------|
|--------------------------------------------|
|-----7--7-----------7------------(7)\-------|
|-0-5-5--5--------5--5------------(5)\-------|
|--------------------------------------------|
|--------------------------------------------|
|
|----------------15--------------------------|
|-------------------15-----------------------|
|----------12s14-------14b16r(14)-12------12-|
|--------------------------------------14----|
|--------------------------------------------|
|--------------------------------------------|


  PM|             PM
|--------------------------------------------|
|--------------------------------------------|
|-----5--5-----------5------------(5)\-------|
|-0-3-3--3--------3--3------------(3)\-------|
|--------------------------------------------|
|--------------------------------------------|
|
|----------------13--------------------------|
|-------------------13-----------------------|
|----------10s12-------12b14r(12)-10------10-|
|--------------------------------------12----|
|--------------------------------------------|
|--------------------------------------------|


  PM--|          PM        PM------------------------------|
|-----------------------|-------------------------------------|
|-----------------------|-------------------------------------|
|-----------------------|-------------------------------------|
|-------5----5-3---3----|-------------------------------------|
|-0-3-3-3--3-3-1-x-1----|-------------------------------------|
|-----------------------|--0-1--1-2--3----3----0-1-1-2-3---3--|
|
|                          PM-----------------|
|-----------------------|-------------------------------------|
|-----------------------|-------------------------------------|
|--------------------/7-|-10-7-10-7-10-7-10-7-10s5---3-5p3----|
|-----------------------|----------------------------------5--|
|-----------------------|-------------------------------------|
|-----------------------|-------------------------------------|


  PM|       PM
|--------------------------------------|
|--------------------------------------|
|-----7--7-----7------------(7)\-------|
|-0-5-5--5--5--5------------(5)\-------|
|--------------------------------------|
|--------------------------------------|
|
|----------15--------------------------|
|-------------15-----------------------|
|----------------14b16r(14)-12------12-|
|--------------------------------14----|
|--------------------------------------|
|--------------------------------------|


  PM|             PM
|---------------------------------------------|
|---------------------------------------------|
|-----5--5-----------5------------(5)\--------|
|-0-3-3--3--------3--3------------(3)\--------|
|---------------------------------------------|
|---------------------------------------------|
|
|----------------13---------------------------|
|-------------------13------------------------|
|----------10s12-------12b14r(12)-10------10--|
|--------------------------------------12-----|
|---------------------------------------------|
|---------------------------------------------|


  PM--|          PM       PM----------------------------------------------|
|---------------------|-------------------------------------------------------|
|---------------------|-------------------------------------------------------|
|---------------------|-------------------------------------------------------|
|-------5----5-3---3--|-------------------------------------------------------|
|-0-3-3-3--3-3-1-x-1--|-------------------------------------------------------|
|---------------------|---0-1--1--2--3------3-------0------1---1--2--3-----3--|
|
|---------------------|----------------12-(12)\-------------------------------|
|---------------------|-/12---12-13-15----------12----------------------------|
|---------------------|----------------------------14b16r(14)-12----14----12--|
|---------------------|------------------------------------------14----14-----|
|---------------------|-------------------------------------------------------|
|---------------------|-------------------------------------------------------|


  PM|             PM
|--------------------------------------------|
|--------------------------------------------|
|-----7--7-----------7------------(7)\-------|
|-0-5-5--5--------5--5------------(5)\-------|
|--------------------------------------------|
|--------------------------------------------|
|
|----------------15--------------------------|
|-------------------15-----------------------|
|----------12s14-------14b16r(14)-12------12-|
|--------------------------------------14----|
|--------------------------------------------|
|--------------------------------------------|


  PM|             PM
|--------------------------------------------|
|--------------------------------------------|
|-----5--5-----------5------------(5)\-------|
|-0-3-3--3--------3--3------------(3)\-------|
|--------------------------------------------|
|--------------------------------------------|
|
|----------------13--------------------------|
|-------------------13-----------------------|
|----------10s12-------12b14r(12)-10------10-|
|--------------------------------------12----|
|--------------------------------------------|
|--------------------------------------------|


  PM--|          PM     PM--------------------|
|---------------------|-------------------------|
|---------------------|-------------------------|
|---------------------|-------------------------|
|-------5----5-3---3--|-------------------------|
|-0-3-3-3--3-3-1-x-1--|-------------------------|
|---------------------|-0-1-1-2-3-3-0-1-1-2-3-3-|

1st Solo:

|------------------------|
|-18----------18---------|
|-17b19=======17r(17)-15-|
|------------------------|
|------------------------|
|------------------------|


|---------------------------------------------------------------|
|-13-------13----13pb15r13-13-------13----13pb15r13-------------|
|----15s17----17--------------15s17----17-----------17-15-------|
|---------------------------------------------------------17-15-|
|---------------------------------------------------------------|
|---------------------------------------------------------------|


      ~~~~~~~~~~~~~~                                                    ~~~~
|--------------------------------------------------------------18b20==(18)--|
|----18b20-(18)pb20-18-15--------15--------15---------------15--------------|
|-------------------------17b19=====17pb19----17r(17)-17b19-----------------|
|-17------------------------------------------------------------------------|
|---------------------------------------------------------------------------|
|---------------------------------------------------------------------------|


          ~~
|-(18)r--18--15-18-15---------------------|
|---------------------18b20r(18)-(18)b20--|
|-----------------------------------------|
|-----------------------------------------|
|-----------------------------------------|
|-----------------------------------------|


|-15------------------15----15--------15-------15-------|
|----18-15---------------18-15--------15-------15-18-15-|
|----------17b19-(17)----------17b19=====17b19----------|
|-------------------------------------------------------|
|-------------------------------------------------------|
|-------------------------------------------------------|


                                             ~~
|-----------------------------------------------|
|--------15-------------------------------------|
|-17b19=====17r(17)-15-17----15-----------------|
|-------------------------17----17-15-17-15-17--|
|-----------------------------------------------|
|-----------------------------------------------|


|----------------------------------------|------------------------------------|
|------------17b18--17b18--17b18r(17)p15-|-15-15----18b20--------------18b20--|
|------15--------------------------------|-15-15-----------15-15-15-15--------|
|-(17)----17-----------------------------|-------17--------15-15-15-15--------|
|----------------------------------------|------------------------------------|
|----------------------------------------|------------------------------------|


|----------18b20--18b20===18b20r(18)p15-|
|-15-15-15------------------------------|
|-15-15-15------------------------------|
|---------------------------------------|
|---------------------------------------|
|---------------------------------------|


|-18b20----(18)pb21r(18)-15-18-15-------18-15-------------------|
|---------------------------------18-15-------18-15-------18-15-|
|---------------------------------------------------17-15-------|
|---------------------------------------------------------------|
|---------------------------------------------------------------|
|---------------------------------------------------------------|


                                             ~~~~~~~
|-------------------------------------------------------------|
|-18-15-------18-15-------------------------------------------|
|-------17-15-------17-15-------17-15-------17-(17)-(17)\-----|
|-------------------------17-15-------17-15-------------------|
|-------------------------------------------------------------|
|-------------------------------------------------------------|
|
|                                               Acoustic:
|-------------------------------------------------------------|
|-------------------------------------------------------------|
|-----------------------------------------------------5---6---|
|-----------------------------------------------------3---4---|
|-------------------------------------------------------------|
|-------------------------------------------------------------|
|-------------------------------------------------------------|

I transcribed the Bass part for 7 string
|-----------------------------|-----------------------|
|-----------------------------|-----------------------|
|-----------------------------|-----------------------|
|-----------------------------|-----------------------|
|-----------------------------|-----------------------|
|-----------------------------|-----------------------|
|
|-----------------------------|-----------------------|
|-3-3-------------------------|-----------------------|
|-0-0-------------------------|-----------------5-6---|
|-----------------------------|-----------------3-4---|
|-----------------------------|-----------------------|
|-3-3-1h3-3-1h3-3-1h3-3-1h3-3-|-1---------------------|
|-----------------------------|---3-2-1-(1)-1-1-------|


|-----------------------------------------|
|--3-----3--------------------------------|
|--0-----0--------------------------------|
|-----------------------------------------|
|-----------------------------------------|
|--3-----3--------------------------------|
|
| 
|-----------------------------------------|
|-17b19----(17)---------17b19===(17)pb20--|
|-17pb19r==(17)-(17)p15-------------------|
|-----------------------------------------|
|-----------------------------------------|
|-----------------------------------------|


|--------------------------------|------------|-----------|
|--------------------------------|--3-3-------|-----------|
|-----------------------5------6-|--0-0-------|-------5-6-|
|-----------------------3------4-|------------|-------3-4-|
|--------------------------------|------------|-----------|
|--------------------------------|--3-3-------|-----------|
|
|--------------------------------|------------|-----------|
|-(17)pb19----17r17--------------|------------|-----------|
|----------------17pb19r==(17)---|-15---------|-----------|
|--------------------------------|------------|-----------|
|--------------------------------|------------|-----------|
|--------------------------------|------------|-----------|

Here Zakk has played a bit sloppy ( sure on purpose ), so this might not be perfect
|--------------------------------------------------------------------------|
|--3-----3-----------------------------------------------------------------|
|--0-----0-----------------------------------------------------------------|
|--------------------------------------------------------------------------|
|--------------------------------------------------------------------------|
|--3-----3-----------------------------------------------------------------|
|
|-----------------------------------------------------------------------15-|
|-----------------------------------------------------------15-18-15-18----|
|--------------------------------------------15s18-15-18-18----------------|
|-----------------------------15----15-17-17-------------------------------|
|----------15-----15-15h17-17----17----------------------------------------|
|-15-15-18----18-----------------------------------------------------------|


|------------------------------|
|------------------------------|
|-------------------------5-6--|
|-------------------------3-4--|
|------------------------------|
|------------------------------|
|
|-/[15]s[18]s20b23r=(20)-------|
|------------20b23r=(20)-------|
|------------------------------|
|------------------------------|
|------------------------------|
|------------------------------|


|-----------|-------------|
|-3-3-------|-------------|
|-0-0-------|-------------|
|-----------|-------------|
|-----------|-5-4-5-4-5-4-|
|-3-3-------|-3-2-3-2-3-2-|


2nd Solo:
                                                         ~~~~~~~~~~~
|------------------|-------------------|---------5-----8-------------|
|-8------8----8----|-8----8------------|--8b10-----8-5---7b8-(7)pb8--|
|-7b9----7b9--7b9--|-7b9--7b9--5h6-----|-----------------------------|
|------------------|---------------7---|-----------------------------|
|------------------|-------------------|-----------------------------|
|------------------|-------------------|-----------------------------|


|-5--------------------------------------|
|---8-5---------5-8-5------5-------------|
|-------7b9-(7)-------7b9====7r(7)p5-----|
|------------------------------------7---|
|----------------------------------------|
|----------------------------------------|


|------------5-----7s9-7------/12-9--------/14-12-------|
|-------8b10---7-5-------10-8-------12-10---------14-12-|
|-5-----------------------------------------------------|
|---7-5-------------------------------------------------|
|-------------------------------------------------------|
|-------------------------------------------------------|


|-/15-12-------/17-15-------/19-17-------20-17-------20-17-------------------|
|--------14-12--------17-15--------19-17-------20-17-------20-17-------20-17-|
|----------------------------------------------------------------19-17-------|
|----------------------------------------------------------------------------|
|----------------------------------------------------------------------------|
|----------------------------------------------------------------------------|


                                 ~~
|----------------------------------|
|----------19----------20b24r===20-|
|-19-17----19-17-------------------|
|-------19-------19-17-------------|
|----------------------------------|
|----------------------------------|


|-------------------17----------------------------------|
|-(20)--17-------17----20-17-------17-------------------|
|----------19b21-------------19b21----19b21r(19)p17-----|
|---------------------------------------------------19--|
|-------------------------------------------------------|
|-------------------------------------------------------|

 
|----------------------------------------------------|
|-------17-------17-------17-------17-(17)----19b20==|
|-17h18----17h18----17h18----17h18---------17--------|
|----------------------------------------------------|
|----------------------------------------------------|
|----------------------------------------------------|


|-----------------------------------|------------------------------17--------|
|-(19)pb20--19b20r(19)-17-----------|--20b22---17-20-17---------------20p17--|
|-------------------------19-17-----|-------------------19b21-(19)-----------|
|-------------------------------19--|----------------------------------------|
|-----------------------------------|----------------------------------------|
|-----------------------------------|----------------------------------------|


|--------------------------------------------------|
|----17-----------------------17-17-17-17-17-17----|
|-19----19b21r(19)p17-19-19-x-17-17-17-17-17-17-14-|
|--------------------------------------------------|
|--------------------------------------------------|
|--------------------------------------------------|


|-15h17----15h17----17----17----17----|
|-------------------------------------|
|-------14-------14----14----14----14-|
|-------------------------------------|
|-------------------------------------|
|-------------------------------------|


                                        ~~~~~
|-17----17----20b22\--17---------------------5-|
|------------------------17-20b22r(20)-20b22---|
|----14----14----------------------------------|
|----------------------------------------------|
|----------------------------------------------|
|----------------------------------------------|


|---------5-------------------------------------|
|-8-5-------8-5---7b8r(7)-------5h8-5---5-8p5---|
|-----7b9-------7-7b9r(7)-5-7-7-------7-------8-|
|-----------------------------------------------|
|-----------------------------------------------|
|-----------------------------------------------|


                                          ~~~~~~
|------------------------------------------------|
|-8p5---5h8p5---5-8p5---5-8---5------------------|
|-----7-------7-------7-----7---7b9r(7)p5--------|
|-----------------------------------------7-(7)--|
|------------------------------------------------|
|------------------------------------------------|


|-------------------|---------------------------------|
|-------------13b15-|-(13)pb15--13--10h13p10----10----|
|-12b14-------------|------------------------12----12-|
|-------------------|---------------------------------|
|-------------------|---------------------------------|
|-------------------|---------------------------------|


|-------------10b12-|-(10)pb12------------------------|
|-------------------|-----------13b15--10h13p10-10\---|
|-12b14-------------|---------------------------------|
|-------------------|---------------------------------|
|-------------------|---------------------------------|
|-------------------|---------------------------------|


|-------------------|
|-------------12b13-|
|-12b14-------------|
|-------------------|
|-------------------|
|-------------------|


|----------10-11-12-12b14-10-------------------------|----------------|
|-(12)pb13-------------------12pb14r(12)-10----12-10-|-------------12-|
|-------------------------------------------12-------|-12b14----------|
|----------------------------------------------------|----------------|
|----------------------------------------------------|----------------|
|----------------------------------------------------|----------------|


                  PM------|   ~~  PM------|   ~~    PM------|   ~~PM
|--------------|---------------------------------|------------------------|
|-12-----------|-------------10--------------10--|-------------10---------|
|-14b16--------|----10-10-10-10-----10-10-10-10--|----10-10-10-10---5--6--|
|--------------|-12--------------12--------------|-12-------------3-3--4--|
|--------------|---------------------------------|------------------------|
|--------------|---------------------------------|------------------------|


Break:
Acoustic    

||---------------------------------|----------------------------|--|
||o--------------------------------|----------------------------|--|
||-----0--5p=0---3p0-3p0---3p0---0-|----0-4p0---3p0-2p0---0-----|--|
||--/5---------5---------5-----5---|-/3-------3---------3---5p3-|--|
||o--------------------------------|----------------------------|--|
||---------------------------------|----------------------------|--|
|
| only 1st time  
||---------------------------------|----------------------------|--|
||o--------------------------------|----------------------------|--|
||---7-7-(7)-----------------------|----------------------------|--|
||---5-5-(5)-----------------------|----------------------------|--|
||o--------------------------------|----------------------------|--|
||---------------------------------|----------------------------|--|


  1.,2.,3.                                4.
                                        4x
|---------------------------------------||----------------|
|--------------------------------------o||----------------|
|-----0-----0---------0-------0---------||-----0----------|
|---2---------------0---0--------0s2p0--||---2------------|
|-3-------0-----0---------0h2----------o||-3-----0-(0)----|
|-------1-----2---3---------------------||-------1-(1)----|


3rd Solo:

|--------------------|--------------|
|--------------5-----|---------3----|
|-5b7===(5)----5r(5)-|-3h4-----3----|
|--------------------|-----5--------|
|--------------------|--------------|
|--------------------|--------------|


   PM--------|  PM  PM
|---------------------------------------------------------------|
|---------------------------------------------------------------|
|----3---5---3----5---3---5---3---5---3---5---3---5b7r(5)p3-----|
|--5---5---5----5---5---5---5---5---5---5---5---5-----------5---|
|---------------------------------------------------------------|
|---------------------------------------------------------------|


|-----------------|--------------3---------------------|
|-/6--------------|--------3-------6p3------3----------|
|-/7---/5-3-5---3-|----3h4---5b7-------5b7====5r(5)--3-|
|-----------------|-5----------------------------------|
|-----------------|------------------------------------|
|-----------------|------------------------------------|


   ~~~~~
|--------15-------------------------------------18b20---15-18-15-------|
|-18b20-----18-15-------15-------15-15-15----15------------------18-15-|
|-----------------17b19----17b19----------17---------------------------|
|----------------------------------------------------------------------|
|----------------------------------------------------------------------|
|----------------------------------------------------------------------|


                                                   ~~
|-18-15--------------------------------------------------------|
|-------18-15-------18-15--------------------------------------|
|-------------17-15-------17-15-------17-15-------17-----------|
|-------------------------------17-15-------17-15------17--/14-|
|--------------------------------------------------------------|
|--------------------------------------------------------------|


|---------------------------------------------|
|----------------15---------------------------|
|-12----12-14b16----14b16r(14)p12----12-------|
|----14---------------------------14------/14-|
|---------------------------------------------|
|---------------------------------------------|


|----------------------------------------|
|-15b18-15-------------------------------|
|----------14b16r14-12----12---(12)\-----|
|----------------------14------------/14-|
|----------------------------------------|
|----------------------------------------|


               ~~~~~~~
|-----------------------------------------------|
|-----------------------------------------------|
|-------12----12-(12)-----------12----12-14b16--|
|-12-14----14---------14\-12-14----14-----------|
|-----------------------------------------------|
|-----------------------------------------------|


|------------------------------------------------|
|----------15-13-12------------------------------|
|-(14)pb16----------14b16r(14)-12h14---(14)\-19--|
|------------------------------------------------|
|------------------------------------------------|
|------------------------------------------------|


|-------------------------------------------|
|-18----18----18----18----18----18----18----|
|----19----19----19----19----19----19----19-|
|-------------------------------------------|
|-------------------------------------------|
|-------------------------------------------|


|-------------------------------------------------|
|-18----18----18-------------------15-18p15-15-15-|
|----19----19----19s17-15-17-15-17----------------|
|-------------------------------------------------|
|-------------------------------------------------|
|-------------------------------------------------|


   ~~~~~
|-18b20---18-15-------15----------15----------15----------|
|---------------18b20----18p15-------18p15-------18p15----|
|------------------------------17----------17----------17-|
|---------------------------------------------------------|
|---------------------------------------------------------|
|---------------------------------------------------------|


|-15----------15----------15----------15----------|
|----18p15-------18p15-------18p15-------18p15----|
|----------17----------17----------17----------17-|
|-------------------------------------------------|
|-------------------------------------------------|
|-------------------------------------------------|


                                                ~~~~~
|----------------------------------------------------|
|-------15-------15-18p15----------15-------15-18b20-|
|-17b19----17b19----------17-17b19----17b19----------|
|----------------------------------------------------|
|----------------------------------------------------|
|----------------------------------------------------|


                                            ~~~~           ~~~~~~~~~~~~~~~~~
|----------15----------------------------------------------------------------|
|-(18)pb20----18-15----15-18-15-----------------18--------18--------18-------|
|-------------------17----------17-17b19==(17)-(17)pb19==(17)pb19==(17)pb19--|
|----------------------------------------------------------------------------|
|----------------------------------------------------------------------------|
|----------------------------------------------------------------------------|


                                                               ~~~~      ~~
|---------------------------------------------|-------------------------------|
|---------------------------------------------|--------18------------15-------|
|-17pb19r(17)-16-17-16-17-17b19r(17)-16-17-16-|-17b19=====17r(17)-15h16-------|
|---------------------------------------------|-------------------------17----|
|---------------------------------------------|-------------------------------|
|---------------------------------------------|-------------------------------|


|--------------------------------------------------|
|--------6------6------6-----------6-----6---------|
|-5b7===(5)pb7-(5)pb7-(5)pb7-5pb6-(5)pb6-5r5-4-5-4-|
|--------------------------------------------------|
|--------------------------------------------------|
|--------------------------------------------------|


|----------6---------------------|
|----------6---------------4s5s6-|
|-5b7==(5)---5r(5)-3h4-----------|
|----------------------5---------|
|--------------------------------|
|--------------------------------|


|-------------------------------------------------------------------------|
|--------6--------6--------6--------6--------6--------6-------------------|
|-8s9s10---8s9s10---8s9s10---8s9s10---8s9s10---8s9s10---8s5-5---3---3h4---|
|-------------------------------------------------------------5---5-----5-|
|-------------------------------------------------------------------------|
|-------------------------------------------------------------------------|


|-----------------------------------------------------|
|-8---7---6---5---------------------------------------|
|-----------------3s4-----------5b6r(5)-(5)b6r(5)-3---|
|---5---5---5---5-----5p3---------------------------5-|
|-------------------------5-3-5-----------------------|
|-----------------------------------------------------|

I don`t know how Zakk plays this part, but I tab with my middle finger
The f ( 18th fret ) and bend it up 1 ½ steps.

                    T        T        T
|------------------------------------------------------|
|------------------(18)b20---(18)---(18)pb21-----5-----|
|-----5b7==(5)r(5)--------------------------------5pb7r|
|-(5)--------------------------------------------------|
|------------------------------------------------------|
|------------------------------------------------------|


|----------------------6-|
|-------5-----------/8---|
|-(5)-3-5-3--------------|
|-----------5-3-5--------|
|------------------------|
|------------------------|


|---8---6---8---6---8---6-8h9p8p6---6---6h7h10-7p6h7p6-8---6------|
|-8---8---8---8---8---8-----------8---8------------------8---8s6--|
|-----------------------------------------------------------------|
|-----------------------------------------------------------------|
|-----------------------------------------------------------------|
|-----------------------------------------------------------------|


|-----3-------------|-----------------------------------------x-x-x-x-|
|-3h6-------8-------|-----3-------6-------------------3-------x-x-x-x-|
|-------5s7---7s5---|-5---3h4-5s7---7-7-5p3---3---3h5-------5-x-x-x-x-|
|-----------------5-|---5-------------------5---5-------5-------------|
|-------------------|-------------------------------------------------|
|-------------------|-------------------------------------------------|


|-------------12----------------------------|
|----13-14-15----13-------13-14-15-13-------|
|-14----------------14b16-------------14b16-|
|-------------------------------------------|
|-------------------------------------------|
|-------------------------------------------|


|----------------------------------------|
|----------------------------------------|
|-14-12-14b16-14-12----12h14-12----9h12--|
|-------------------14-------------------|
|----------------------------------------|
|----------------------------------------|


|-------------------------------------|
|----------------------------------12-|
|-14b16--14b16r(14)p12----12---/14----|
|----------------------14-------------|
|-------------------------------------|
|-------------------------------------|


                                                              ~~
|--------15-----12-------12-------12-------12--------------------------15-|
|-15b17=====15r----------------------------------------------------/18----|
|------------------14b16----14b16----14b16----14b16r14-12----12-----------|
|---------------------------------------------------------14--------------|
|-------------------------------------------------------------------------|
|-------------------------------------------------------------------------|


|----------15-------------15-------15----------------------------|
|-18-15-------18-15----------------------------------------------|
|-------17----------17b19----17b19----17b19r17-15----17----15h16-|
|-------------------------------------------------17----17-------|
|----------------------------------------------------------------|
|----------------------------------------------------------------|


|----------------------------15----15-------------------|
|-------------------------------------------------------|
|-17h18-17h18-18-17-15-17h18----17----18p17p15-15-17-15-|
|-------------------------------------------------------|
|-------------------------------------------------------|
|-------------------------------------------------------|


                           ~~~~~
|---------------------------------------3-|
|-18b20r(18)-[18]b20r(18)-18b20----/3h6---|
|-----------------------------------------|
|-----------------------------------------|
|-----------------------------------------|
|-----------------------------------------|


|-6p3-------3-6p3-------3-6p3-------3-6p3-------3-6p3-------3-6p3-|
|-----6-3h6-------6-3h6-------6-3h6-------6-3h6-------6-3h6-------|
|-----------------------------------------------------------------|
|-----------------------------------------------------------------|
|-----------------------------------------------------------------|
|-----------------------------------------------------------------|


|-------3-6p3-------3-6p3-------3-6p3-------3-6p3-------3-6p3-/x-x\-|
|-6-3h6-------6-3h6-------6-3h6-------6-3h6-------6-3h6-------/x-x\-|
|-------------------------------------------------------------------|
|-------------------------------------------------------------------|
|-------------------------------------------------------------------|
|-------------------------------------------------------------------|


                                ~~
|----------------------------------------|---------------------------------|
|------------------------------------x-x-|-----------------------------x-x-|
|-17b19-----17b18-----15-17-15-------x-x-|-14b16--14b16r14p=12-14b16---x-x-|
|------------------------------17--------|---------------------------------|
|----------------------------------------|---------------------------------|
|----------------------------------------|---------------------------------|
|
| 
|  PM--------------------------------|
|-------3---------3-------3-------3------|---------------------------------|
|---------3---------3--------3-------3---|---------------------------------|
|----------------------------------------|---------------------------------|
|--0---------3---------2--------1--------|--0-------------------5----------|
|----------------------------------------|----------------------5----------|
|----------------------------------------|---------5b7r=(5)--3--3----------|


|---------------------------------------------------------|
|-x---13b15r======(13)---13b15-11-13-11b13r(11)-(11)b13r==|
|-x-------------------------------------------------------|
|---------------------------------------------------------|
|---------------------------------------------------------|
|---------------------------------------------------------|
|
| PM--------------------------------------------|
|---3-----------3---------------3------------3------------|
|-----------3----------3-----------3--------------3-------|
|---------------------------------------------------------|
|-0-----------3-----------2-----------1-------------------|
|---------------------------------------------------------|
|---------------------------------------------------------|
 

                                 ~~~~~~~~
|------------------------------------------|
|-(11)-13-11-13----------------------------|
|----------------------12b14---(12)pb14----|
|------------------------------------------|
|------------------------------------------|
|------------------------------------------|
|
|------------------------------------------|
|------------------------------------------|
|------------------------------------------|
|---0----------------------------5---------|
|--------------------------------5---------|
|-------------5b7r=(5)-------3---3---------|


|--------------------------------------------------------------------|
|-------15-------------15-------15------------15b17r15---------------|
|-14b16----14b16-(14)-(14)pb16-(14)pb16-14h16----------14b16r(14)-12-|
|--------------------------------------------------------------------|
|--------------------------------------------------------------------|
|--------------------------------------------------------------------|
|
|  PM-------------------------------------------------------------|
|--------3--------------3----------------------3---------------3-----|
|-----------3--------------------3-------------------3-------------3-|
|--------------------------------------------------------------------|
|--0---------------3------------------------2-----------1------------|
|--------------------------------------------------------------------|
|--------------------------------------------------------------------|


                          ~~~~~
|--------------------------------------|
|------------------------15------------|
|-14b16r=(14)b16r(14)p12-14b16---14p12-|
|--------------------------------------|
|--------------------------------------|
|--------------------------------------|
|
|--------------------------------------|
|--------------------------------------|
|--------------------------------------|
|--0----------------------5------------|
|-------------------------5------------|
|----------5b7r===(5)--3--3------------|


|------------------------------------------------------------------------|
|------------------------------------------------------------------------|
|-14b16r==(14)p12----14b16r==(14)p12----14b16r==(14)p==12-14b15r(14)-----|
|-----------------14-----------------14----------------------------------|
|------------------------------------------------------------------------|
|------------------------------------------------------------------------|
|
|  PM------------------------------------------------------------------|
|-------3------------------3------------------3----------------------3---|
|---------------3------------------3-----------------3-----------------3-|
|------------------------------------------------------------------------|
|--0------------------3------------------2-----------------1-------------|
|------------------------------------------------------------------------|
|------------------------------------------------------------------------|


                 ~~
|-----------------------|---------||-|
|-----------------------|---------||-|
|-14b16r(14)-12-14------|---------||-|
|-----------------------|---------||-|
|-----------------------|---------||-|
|-----------------------|---------||-|
|
|-----------------------|---------||-|
|-----------------------|---------||-|
|-----------------------|---------||-|
|--0--------------------|---------||-|
|-----------------------|---------||-|
|-----------------------|---------||-|


Faster:
  PM----------------|                             PM----------|
|-------------------------------|--------------------------------|
|-------------------------------|-3------------------------------|
|---------------------[5]b7r(5)-|---2b4-0-2p0---0----------------|
|-------------------------------|-------------3---3-0-2-0--------|
|-------------1-2---------------|-------------------------1-2----|
|-0-1-1-2-3-3-----3-1-----------|-----------------------------3--|


  PM----------------|
|------------------------|----------------|-|
|------------------------|----------------|-|
|------------------------|----------------|-|
|---------------------3--|-7-6-(6)-5------|-|
|-------------1-2-----3--|-5-4-(4)-3------|-|
|-0-1-1-2-3-3-----3-1-1--|----------------|-|


    PM----------------|                             PM----------|
||--------------------------------|-------------------------------|
||o-------------------------------|-3-----------------------------|
||----------------------[5]b7r(5)-|---2b4-0-2p0---0---------------|
||--------------------------------|-------------3---3-0-2-0-------|
||o-------------1-2---------------|-------------------------1-2---|
||--0-1-1-2-3-3-----3-1-----------|-----------------------------3-|


                          1.
  PM----------------|                                 ~
|------------------------|--------------------------------||
|------------------------|-------------------------------o||
|------------------------|----------------[3]b5-[3]b5-----||
|---------------------3--|-7-6-(6)-5-(5)\-------------5---||
|-------------1-2-----3--|-5-4-(4)-3-(3)\----------------o||
|-0-1-1-2-3-3-----3-1-1--|--------------------------------||


 2.
  PM--------|              ~
|-----------------------------||--|
|-----------------------------||--|
|--------------[3]b5-[3]b5----||--|
|-7-7-6-6-5-5\-------------5--||--|
|-5-5-4-4-3-3\----------------||--|
|-----------------------------||--|


    PM|       PM
||---------------------------------------|
||o--------------------------------------|
||------7--7-----7------------(7)\-------|
||--0-5-5--5--5--5------------(5)\-------|
||o--------------------------------------|
||---------------------------------------|
|
|   
||-----------15--------------------------|
||o-------------15-----------------------|
||-----------------14b16r(14)-12------12-|
||---------------------------------14----|
||o--------------------------------------|
||---------------------------------------|


  PM|             PM
|--------------------------------------------|
|--------------------------------------------|
|-----5--5-----------5------------(5)\-------|
|-0-3-3--3--------3--3------------(3)\-------|
|--------------------------------------------|
|--------------------------------------------|
|
|----------------13--------------------------|
|-------------------13-----------------------|
|----------10s12-------12b14r(12)-10------10-|
|--------------------------------------12----|
|--------------------------------------------|
|--------------------------------------------|


   PM----------------------------------------------------------------------|
|-----------------------------------------------------------------------------------|
|-----------------------------------------------------------------------------------|
|-----------------------------------------------------------------------------------|
|-----------------------------------------------------------------------------------|
|-----------------------------------------------------------------------------------|
|--0----1-----1----2-----3--------3--------0----1-----1----2-----3-----------3------|
|
|-18-15---18-15---------18-15-18-15-------18-15---18-15-----------------------------|
|---------------18---15-------------18-15---------------18---15-18b20r(18)-(18)b20\-|
|-----------------------------------------------------------------------------------|
|-----------------------------------------------------------------------------------|
|-----------------------------------------------------------------------------------|
|-----------------------------------------------------------------------------------|


  PM|             PM
|--------------------------------------------|
|--------------------------------------------|
|-----7--7-----------7------------(7)\-------|
|-0-5-5--5--------5--5------------(5)\-------|
|--------------------------------------------|
|--------------------------------------------|
|
|----------------15--------------------------|
|-------------------15-----------------------|
|----------12s14-------14b16r(14)-12------12-|
|--------------------------------------14----|
|--------------------------------------------|
|--------------------------------------------|


  PM|             PM
|--------------------------------------------|
|--------------------------------------------|
|-----5--5-----------5------------(5)\-------|
|-0-3-3--3--------3--3------------(3)\-------|
|--------------------------------------------|
|--------------------------------------------|
|
|----------------13--------------------------|
|-------------------13-----------------------|
|----------10s12-------12b14r(12)-10------10-|
|--------------------------------------12----|
|--------------------------------------------|
|--------------------------------------------|


  PM--|          PM        PM------------------------------|
|-----------------------|-------------------------------------|
|-----------------------|-------------------------------------|
|-----------------------|-------------------------------------|
|-------5----5-3---3----|-------------------------------------|
|-0-3-3-3--3-3-1-x-1----|-------------------------------------|
|-----------------------|--0-1--1-2--3----3----0-1-1-2-3---3--|
|
|                          PM-----------------|
|-----------------------|-------------------------------------|
|-----------------------|-------------------------------------|
|--------------------/7-|-10-7-10-7-10-7-10-7-10-7s==3-5p3----|
|-----------------------|----------------------------------5--|
|-----------------------|-------------------------------------|
|-----------------------|-------------------------------------|


  PM|       PM
|--------------------------------------|
|--------------------------------------|
|-----7--7-----7------------(7)\-------|
|-0-5-5--5--5--5------------(5)\-------|
|--------------------------------------|
|--------------------------------------|
|
|----------15--------------------------|
|-------------15-----------------------|
|----------------14b16r(14)-12------12-|
|--------------------------------14----|
|--------------------------------------|
|--------------------------------------|


  PM|             PM
|---------------------------------------------|
|---------------------------------------------|
|-----5--5-----------5------------(5)\--------|
|-0-3-3--3--------3--3------------(3)\--------|
|---------------------------------------------|
|---------------------------------------------|
|
|----------------13---------------------------|
|-------------------13------------------------|
|----------10s12-------12b14r(12)-10------10--|
|--------------------------------------12-----|
|---------------------------------------------|
|---------------------------------------------|


  PM--|          PM       PM-------------------------------------------|
|---------------------|--------------------------------------------------|
|---------------------|--------------------------------------------------|
|---------------------|--------------------------------------------------|
|-------5----5-3---3--|--------------------------------------------------|
|-0-3-3-3--3-3-1-x-1--|--------------------------------------------------|
|---------------------|---0-1--1--2--3-----3--------0-------1---1-2-3--3-|
|
|---------------------|--------------------------------------------------|
|---------------------|-------15----15----15----15-----------------------|
|---------------------|-/16------16----16----16----14pb16r(14)-12--------|
|---------------------|--------------------------------------------------|
|---------------------|--------------------------------------------------|
|---------------------|--------------------------------------------------|


  PM|             PM
|--------------------------------------------|
|--------------------------------------------|
|-----7--7-----------7------------(7)\-------|
|-0-5-5--5--------5--5------------(5)\-------|
|--------------------------------------------|
|--------------------------------------------|
|
| 
|----------------15--------------------------|
|-------------------15-----------------------|
|----------12s14-------14b16r(14)-12------12-|
|--------------------------------------14----|
|--------------------------------------------|
|--------------------------------------------|


  PM|             PM
|--------------------------------------------|
|--------------------------------------------|
|-----5--5-----------5------------(5)\-------|
|-0-3-3--3--------3--3------------(3)\-------|
|--------------------------------------------|
|--------------------------------------------|
|
|----------------13--------------------------|
|-------------------13-----------------------|
|----------10s12-------12b14r(12)-10------10-|
|--------------------------------------12----|
|--------------------------------------------|
|--------------------------------------------|


    PM--|          PM
                         3x
||-----------------------||-|
||o---------------------o||-|
||-----------------------||-|
||--------5----5-3---3---||-|
||o-0-3-3-3--3-3-1-x-1--o||-|
||-----------------------||-|

Acoustic:
  
|-15----------------------------|-13----------------------------|
|----15-------------------------|----13-------------------------|
|-------14b16r(14)-12----12-----|-------12b14r(12)-10----10-----|
|---------------------14--------|---------------------12--------|
|-------------------------------|-------------------------------|
|-------------------------------|-------------------------------|


|-8---------------------|-------------------------3--|
|---8-------------------|-------------------------3--|
|-----7b9r(7)-5---5-----|-2h3p2p0-2p0---0---------0--|
|---------------7-------|-------------3---2p0-----0--|
|-----------------------|---------------------3p2-2--|
|-----------------------|-------------------------3--|

That`s it. 

***************************************************************************************
* Generated using Power Tab Editor by Brad Larsen - http://powertab.guitarnetwork.org *
***************************************************************************************

            
            
Suggest correction
Creating personal tab
Creating personal tab
You can edit any tab online and save it as your Personal.

You can edit, replace or remove any tab part or add personal notes – all changes will be seen only by you.

Personal tabs can be accessed anytime from any device, even offline.
Learn more »
Give kudos to tab author, rate the tab!
1 2 3 4 5
comments
print report bad tab
guest
You may want to rate the tab now too:
select rating
Wanna post a correction for this tab? Suggest correction