Oops, an error
Loading. Please wait.

Lost Prayer chords

14,423 views 171 this week
8 commentsread comments
1 2 3 4 5
x 16
add to favorites
×
Save as Personal and add changes to this tab that will be seen only by you. Learn more ›
×
You can save this tab as Personal to edit and correct it or add notes. All changes will be seen only by you. Learn more »
launch autoscroll
font size
0
reset
transpose
0
reset
display chords
guitar tuner
edit
Autoscroll
slow
fast
+/-
esc
set tempo
stop
Author
Difficulty
Strumming
There is no strumming pattern for this song yet. and get +5 IQ
[Intro]

e|---------------------------------------------------------------------------|
B|---------------------------------------------------------------------------|
G|----------5h7---5----------------------------------------------------------|
D|-3--5/7------------7p5-------------5--5h7-5-----5--------------------------|
A|-----------------------3---5---7-------------7-----------------------------|
E|---------------------------------------------------------------------------|

e|--------5------------------------5-----------------------------------------|
B|--------5h6-5---------------------5----------------------------------------|
G|-----7--------7---------------5----5---------------------------------------|
D|---7-----------------------7-----------------------------------------------|
A|-5-------------------------------------------------------------------------|
E|-----------------------5---------------------------------------------------|

[Rhythm is F, C, Dm, Am, G, but you play riff]

[VERSE 1] Riff

 F                     C  
You say that you're damned 
Dm                            Am  G
You say that your life isn't fair 
 F                        C
What's right and what's wrong 
                 Dm                      Am G
You've got your needs and you just don't care 
 F      C
On and on we drift 
 Dm                    Am G
Back to where we were before 
 F                 C
You can welcome me in 
         Dm                   Am 
I will not walk through that door
   G 
Oh, no, no. 


[CHORUS]

 C         G            Dm        Dm
I may be blind but I'll find my way 
C              Am              F
Like a lost prayer on stormy day 
F
Oh, stormy day 

[SOLO] 

e|---------------------------------------------------------------------------|
B|---------------------------------------------------------------------------|
G|----------5h7---5----------------------------------------------------------|
D|-3--5/7-----------7p5--------------5--5h7-5-----5--------------------------|
A|-----------------------3---5---7-------------7-----------------------------|
E|---------------------------------------------------------------------------|

e|--------5------------------------5-----------------------------------------|
B|--------5h6-5---------------------5----------------------------------------|
G|-----7--------7---------------5----5---------------------------------------|
D|---7-----------------------7-----------------------------------------------|
A|-5-------------------------------------------------------------------------|
E|-----------------------5---------------------------------------------------|


[VERSE 2] Riff 

  F                 C
You can carry your grudge 
                    Dm
I've severed these ties 
                  Am G
And I've cut you free 
F                    C
Keep your war to yourself 
              Dm             Am G
I buried what was, and my sympathy 
F       C
On and on we drift 
Dm                      Am G
Back to where we were before 
 F                 C
You can welcome me in 
         Dm                   Am 
I will not walk through that door
   G 
Oh, no, no. 


[CHORUS]

 C         G            Dm        Dm
I may be blind but I'll find my way 
C              Am              F
Like a lost prayer on stormy day 
F
Oh, stormy day 

Am, G, F x4


[SOLO]

e|---------------------------------------------------------------------------|
B|---------------------------------------------------------------------------|
G|----------5h7---5----------------------------------------------------------|
D|-3--5/7-----------7p5--------------5--5h7-5-----5--------------------------|
A|-----------------------3---5---7-------------7-----------------------------|
E|---------------------------------------------------------------------------|

e|--------5------------------------5-----------------------------------------|
B|--------5h6-5---------------------5----------------------------------------|
G|-----7--------7---------------5----5---------------------------------------|
D|---7-----------------------7-----------------------------------------------|
A|-5-------------------------------------------------------------------------|
E|-----------------------5---------------------------------------------------|


[CHORUS]

 C         G            Dm        Dm
I may be blind but I'll find my way 
C              Am              F
Like a lost prayer on stormy day 
F
Oh, stormy day
 

************************************

| h  Hammer-on
| /  Slide up 

************************************

            
            
Suggest correction
Creating personal tab
Creating personal tab
You can edit any tab online and save it as your Personal.

You can edit, replace or remove any tab part or add personal notes – all changes will be seen only by you.

Personal tabs can be accessed anytime from any device, even offline.
Learn more »
comments
print report bad tab
8 comments total. Showing first comments.
0 reply
PigFluPandemic 10 Jul 14, 2016 07:29 AM

In the intro, just before the 3-5-7 walk up the A string, the note marked as 7 on the D string should be a 7p5 instead. Listen carefully and you can hear him either pull to the 5th fret.

-Side note: when watching Wylde play live he keeps the same relative hand position throughout the entire intro, meaning he actually doesn't do any slides or "large" fret board jumps. The tab is correct when it comes to sound, but Wylde finds these notes on different strings. Just some food for thought if you ever get around to updating the tab. Great work on the tab also.

0 reply
shadowstepv1 55 Jul 29, 2016 04:12 AM

Very nice, I noticed that when I watched live versions.
I think you can edit tab, so feel free to help others

+2 reply
theeht 10 Oct 23, 2016 06:45 PM

e|----------------------------------------------------------------------|
B|------------5^7^5---5^7^5---------------------------------------------|
G|-------5----5---5---5--5----------------------------------------------|
D|----7----7---------------------5-----5^7^5-----5----------------------|
A|-8--------------------------7-----7---------7-------------------------|
E|--------------------------8-------------------------------------------|

e|-----------------------------------5----------------------------------|
B|--------5^6^5---5^6^5---------------------5---------------------------|
G|-----7--7---7---7---7------------------------5------------------------|
D|---7--------------------------7-----------------5---------------------|
A|-5-------------------------7------------------------------------------|
E|------------------------5-------------5-------------------------------|

guest
You may want to rate the tab now too:
select rating
Wanna post a correction for this tab? Suggest correction