Oops, an error
Loading. Please wait.

The Things You Do Tab

15,616 views 3 this week
2 commentsread comments
1 2 3 4 5
excellent!
x 7
add to favorites
launch autoscroll
font size
0
reset
how to read this tab
guitar tuner
Tab Pro tools
  • play this tab
  • loop segment
  • change instrument
  • show fretboard
  • metronome
×
Best way to learn
"The Things You Do"
Autoscroll
slow
fast
+/-
esc
set tempo
stop
Contributor
Artist: Zakk Wylde
Album: Book of Shadows
Title: The things you do

From: www.BlackLabelSociety.net

Tabbed By: Matt Pavlichko

Tuning: Standard


INTRO

|--------h----------------------/-----------------------0------|
|------3--5-3-------------------/-----------------------3------|
|------2----2--------h--p-------/--------------------0--0------|
|-0-0--0-----------2--4--2----2-/-2--4--2------------4---------|
|--------------0-0-0--------5---/-x--x--x--5-----2---2---------|
|-------------------------------/-3--3--3--3-----0-------------|

intro lick

|-----------------/--------/-----------------------------------|
|-------10--------/--------/-----------------------------------|
|-9--11----11--9--/--9--7--/-----------------------------------|
|-----------------/--------/-----------------------------------|
|-----------------/--------/-----------------------------------|
|-----------------/--------/-----------------------------------|

VERSE:

|---------------/------3---------------/-----------------------|
|-----3------2--/------3---3-----------/-----3-----------------|
|-----2------2--/------0---0-----------/-----2--------2--------|
|-0-0-0------2--/----------0---------0-/-0-0-0--------2--------|
|--------0-0-0--/---------------0--2---/----------0-0-0--------|
|---------------/--3-3-------3----h----/-----------------------|

                            part before chorus:worse and even more..

|------------------0-----/--0-------/-0------/-----------------|
|------3-------3----3----/--3---0---/-3---3--/-----------------|
|------0---------0----0--/--0-----4-/-0---0--/-----------------|
|------0---------------4-/--4-------/-4---0--/-----------------|
|------x-----------------/----------/-----x--/-----------------|
|-3-3--3-----0-----------/----------/-----3--/-----------------|

CHORUS:
       h
|-----0--2-2----------/------------0-------/-------------------|
|-----3----3-------1--/-----3--3-----3-----/-------------------|
|-----2----2-------2--/-----0---0------0---/-------------------|
|-0-0-0------------2--/-----0------------4-/-------------------|
|-------------0-0--0--/-----x--------------/-------------------|
|---------------------/-3-3-3--------------/-------------------|

BRIDGE                  strum                   etc....
                                              h
|------------0--------/---0---/--1-----3-/--0--2-0--2----------|
|--------------3------/---1---/--1-----3-/--3----3--3----------|
|------0----------0---/---2---/--2-----4-/--2----2--2----------|
|---------4---------4-/---2---/--3-----5-/--0----0--0----------|
|----2----------------/---0---/--3-----5-/---------------------|
|--0------------------/-------/--1-----3-/---------------------|

SOLO:
Bar A                            bar B

|----------------------------/---------------------------------|
|---10--bend-----------------/---------------------------------|
|------9---9-9-7-9--9---9--7-/-7-----------------------------|
|---------------s----bend----/---7--9--------------------------|
|----------------------------/-----s---------------------------|
|----------------------------/---------------------------------|



|---------------/---/--------------------/---------------------|
|---------------/---/--------------------/---------------------|
|-repeat bar a--/-7-/--repeat-bar then B-/------------------|
|---------------/---/--------------------/---------------------|
|---------------/---/--------------------/---------------------|
|---------------/---/--------------------/---------------------|


|--10-------7---------------------/----------------------------|
|-----10-------10-----------------/------------------------|
|------bend---------9---9-9---7-9-/--9---9-7----7--9-----------|
|--------------------bend---------/---bend--------h---7--9-----|
|---------------------------------/---------------------h------|
|---------------------------------/----------------------------|
comments
print report bad tab
2 comments total.
0 reply
fretsofthebeast wrote on April 26 2009, 04:26 pm

not sure if it right....but its the only 1 so yea

sounds good to me
thx for adding it man

0 reply
AlexARC wrote on February 21 2015, 04:35 pm

Close. Intro lick should be more like...


--------------------------------
---------------10---------------
----7--7/9/11-------11\9---7----
--------------------------------
--------------------------------
--------------------------------

I want to post or [tab]
guest
You may want to rate the tab now too:
select rating
Please do not post tabs as comments. Select "correction" instead!