Oops, an error
Loading. Please wait.

Way Beyond Empty Tab

version 1
version 1

Whole song

Interactive

28,253 views 30 this week
1 commentread comment
1 2 3 4 5
accurate
x 9
add to favorites
launch autoscroll
font size
0
reset
how to read this tab
guitar tuner
Autoscroll
slow
fast
+/-
esc
set tempo
stop
Help us to improve Ultimate-Guitar.com Take our survey!
×
Contributor
Artist: Zakk Wylde
Album: Book of Shadows
Title: Way Beyond Empty

Tuning: Standard


Main Riff: figure out the rhythm, the cords are right…

|--3--2---0---2--3-----\------------\----------------------------|
|--3--3---3---3--3-----\-------3----\----------------------------|
|--2--2---2---2--0-----\-------0----\----------------------------|
|--0-------------------\----0--0----\----------------------------|
|----------------------\------------\----------------------------|
|-------------------2--\--3---------\----------------------------|

would you turn your back on me, ……… etc.

|--3--2---0---2--\------0----/--------3-------2--/--0------------|
|--3--3---3---3--\------3----/--------3-------3--/--3------------|
|--2--2---2---2--\--0---0----/---0----0-------0--/--0------------|
|--0-------------\--x---x----/---0---------------/-----------0---|
|----------------\--2---2----/---x---------------/-------0-2-----|
|----------------\--0---0----/---3---------------/--------h------|

way beyond empty….

   D                D/F#           G

|-2---0--2---0--/--------2---0--/--------3--2--0-----------------|
|-3---3--3---3--/--------3---3--/--------3--3--3-----------------|
|-2---2--2---2--/--------2---2--/--------0--0--0-----------------|
|-0---0--0---0--/---0----0------/---0---------------------0------|
|---------------/---x-----------/---x---------------0--2---------|
|---------------/---2-----------/---3-----------------h----------|

repeat chords here, then play this fill in the G measure

|-----------------------\----------------------------------------|
|----3----------3-------\-----3----------3-----------------------|
|------0----------0-----\-------0----------0---------------------|
|--5------5--4-------4--\---2------2---0------0------------------|
|-----------------------\----------------------------------------|
|-----------------------\----------------------------------------|


|---------------------0----/---------------------\-----------2-|
|---------------------2----/---------------------\-----------3-|
|----0-------0--------0----/----0------0------0--\------0----2-|
|------0--------0-----2----/------0------0-------\--0-----0--0-|
|--1-----3------------0----/--1-----3------0-----\-------------|
|--------------------------/---------------------\----3--------|

SOLO:

|------------/---------/---------------/------/----------------|
|------------/----s----/--------10-----/------/-------------7-8|
|-------7-9--/--9--11--/--9--------9-9-/--7---/--------7--9----|
|-7--9-------/---------/---------------/------/--7--9----------|
|------------/---------/---------------/------/----------------|
|------------/---------/---------------/------/----------------|

|----------\-------------------\-------------------------------|
|-7---7-8--\-10--10-10-11------\-------------------------------|
|----------\---------------9-9-\--7----------------------------|
|----------\-------------------\-----7--9----------------------|
|----------\-------------------\-------h-----------------------|
|----------\-------------------\-------------------------------|

|----------------------------------------------------------------|
|----------------------------------------------------------------|
|-14-12-12---12-11-11---11-9-9---9-7-7---------------------------|
|----------------------------------------------------------------|
|----------------------------------------------------------------|
|----------------------------------------------------------------|

|----------------------------------\---------------------------|
|-12-10-10---10-8-8---8-7-7----7-8-\-10----10-8-7-8------------|
|----------------------------------\---------------------------|
|----------------------------------\---------------------------|
|----------------------------------\---------------------------|
|----------------------------------\---------------------------|

|-------------------/------------------------------------------|
|-8---10------------/------------------------------------------|
|----------9-9-7-9--/--7---------------------------------------|
|-------------------/------------------------------------------|
|-------------------/------------------------------------------|
|-------------------/------------------------------------------|
comments
print report bad tab
1 comment total.
0 reply
AmariMDM 11 wrote on August 5 2013, 08:23 pm

Solo in my opinion starts more like this, didnt check the rest yet.
Mb i will try to fix rest if i'll get to do it later

v-vibrato
|---------------/---------------/---------------/---------------/
|---------------/------10-------/---------------/---------------/
|------7-9-v11--/--v9------9p7--/------7-9-v11--/---11-12-v14---/
|-7-9-----------/-------------v9/-7-9-----------/---------------/
|---------------/---------------/---------------/---------------/
|---------------/---------------/---------------/---------------/

|---------------/--
|---v12---------/--
|------9-7-v4---/--
|---------------/--
|---------------/--
|---------------/--

I want to post or [tab]
guest
You may want to rate the tab now too:
select rating
Please do not post tabs as comments. Select "correction" instead!