Oops, an error
Loading. Please wait.

Fantasmas Entre Lo Muebles tab

29 views 3 this week
no commentswrite comment
1 2 3 4 5
3 more votes to show rating
add to favorites
×
Save as Personal and add changes to this tab that will be seen only by you. Learn more ›
×
You can save this tab as Personal to edit and correct it or add notes. All changes will be seen only by you. Learn more »
launch autoscroll
font size
0
reset
how to read this tab
guitar tuner
edit
Autoscroll
slow
fast
+/-
esc
set tempo
stop
Intro:
  C#m                     F#m                   B
---3/4---------------------------------2------0h2------------------
--------5-----------5---------------2-------------3---------3------
-----------6-----6---------------2-------------------3----3--------
--------------6----------------------------------------3-----------
-------------------------------------------------------------------
----------------------------2--------------------------------------

 E                 C#m                   F#m
------------0-----------------------4--------------2---------------
---------0---------4h5-----------5--------------2------------------
------1-----------------6-----6--------------2---------------------
---------------------------6---------------------------------------
--2----------------------------------------------------------------
-----------------------------------------2-------------------------

   G#                   C#m         G#
-----4-------------------------------------------------------------
--------4-----------4-----------5------------4---------------------
-----------5-----5------------6------------5-----------------------
--------------6------------6------------6--------------------------
------------------------4------------------------------------------
------------------------------------4------------------------------

(ritmo: arpegio)

C#m                       F#m
Golpean la puerta de mi habitacion
B                         E
la calle, su aroma y el camino detras
C#m                     F#m
harta prepotente en su sutil tonada
G#                         C#m-G#
llevando del sueño con la voz

(ritmo: vals)
C#m                       F#m
promesas de amor calcadas de un pais
B                         E
herido por las alas en su condicion
C#m                     F#m
urgente y desteñido traje de funcion
G#                         C#m
abriga los recuerdos sin saber de ti

(ritmo: rasgueo normal)
E                        B
melodia en paz, hoy es mi dia
G#                           C#m
hoy regreso por tu senda de mi travesia
A                        E
lo que recordaba yo hoy se asume ya sin mi
G#                          G#7
un tregua a la razon de la musa mas febril

C#m                            F#m
dime quien soy, tu que sabes de mi
B                                       E
el que se ha esperado en vano, el que habra quedado aqui
Am                                 E
fantasma entre los muebles, de un siglo sin reir
G#                        G#7             C#m
dime quien soy yo tu que sabes quien yo fui

C#m                F#m
ocaso dañado de perpetuidad
B                         E
al fino contrapunto de otro amanecer
C#m                       F#m
la liberdad endemíca se desperto
G#                         C#m
llorando y con el maquillaje sin correr

G#         C#m                     F#m
no, no, no vuelvas si solo quieres regresar
B                         E
mirando las estrellas uno no hace piel
C#m                       F#m
quien quiera una verdad recibe alguna fe
G#                         C#m
y entienda del amor solo su brevedad

E                        B
melodia en paz, hoy es mi dia
G#                           C#m
hoy regreso por tu senda de mi travesia
A                        E
lo que recordaba yo hoy se asume ya sin mi
G#                          G#7
un tregua a la razon de la musa mas febril

C#m                             F#m
dime quien soy, tu que sabes de mi
B                                    E
el que se ha esperado en vano, el que habra quedado aqui
Am                                 E
fantasma entre los muebles, de un siglo sin reir
G#                        G#7
dime quien soy yo tu que sabes quien yo fui

C#m                             F#m
dime quien soy, tu que sabes de mi
B                                   E
el que se ha esperado en vano, el que habra quedado aqui
Am                                 E
fantasma entre los muebles, de un siglo sin dormir
G#                        G#7             C#m
dime quien soy yo tu que sabes quien yo fui


C#m


BenAmi <-- UAMMX
Suggest correction
Creating personal tab
Creating personal tab
You can edit any tab online and save it as your Personal.

You can edit, replace or remove any tab part or add personal notes – all changes will be seen only by you.

Personal tabs can be accessed anytime from any device, even offline.
Learn more »
Give kudos to tab author, rate the tab!
1 2 3 4 5
comments
print report bad tab
guest
Wanna post a correction for this tab? Suggest correction